  0
SECTION
  2
HEADER
  9
$ACADVER
  1
AC1015
  9
$ACADMAINTVER
 70
     6
  9
$DWGCODEPAGE
  3
ANSI_1254
  9
$INSBASE
 10
0.0
 20
0.0
 30
0.0
  9
$EXTMIN
 10
0.0
 20
0.0
 30
0.0
  9
$EXTMAX
 10
279.4
 20
215.9
 30
0.0
  9
$LIMMIN
 10
0.0
 20
0.0
  9
$LIMMAX
 10
279.4
 20
215.9
  9
$ORTHOMODE
 70
     0
  9
$REGENMODE
 70
     1
  9
$FILLMODE
 70
     1
  9
$QTEXTMODE
 70
     0
  9
$MIRRTEXT
 70
     1
  9
$LTSCALE
 40
1.0
  9
$ATTMODE
 70
     1
  9
$TEXTSIZE
 40
3.5
  9
$TRACEWID
 40
1.0
  9
$TEXTSTYLE
  7
Standard
  9
$CLAYER
  8
0
  9
$CELTYPE
  6
ByLayer
  9
$CECOLOR
 62
   256
  9
$CELTSCALE
 40
1.0
  9
$DISPSILH
 70
     0
  9
$DIMSCALE
 40
1.0
  9
$DIMASZ
 40
3.5
  9
$DIMEXO
 40
1.0
  9
$DIMDLI
 40
3.75
  9
$DIMRND
 40
0.0
  9
$DIMDLE
 40
0.0
  9
$DIMEXE
 40
1.0
  9
$DIMTP
 40
0.0
  9
$DIMTM
 40
0.0
  9
$DIMTXT
 40
3.5
  9
$DIMCEN
 40
2.5
  9
$DIMTSZ
 40
0.0
  9
$DIMTOL
 70
     0
  9
$DIMLIM
 70
     0
  9
$DIMTIH
 70
     1
  9
$DIMTOH
 70
     1
  9
$DIMSE1
 70
     0
  9
$DIMSE2
 70
     0
  9
$DIMTAD
 70
     1
  9
$DIMZIN
 70
     0
  9
$DIMBLK
  1

  9
$DIMASO
 70
     1
  9
$DIMSHO
 70
     1
  9
$DIMPOST
  1

  9
$DIMAPOST
  1

  9
$DIMALT
 70
     0
  9
$DIMALTD
 70
     3
  9
$DIMALTF
 40
0.0393700787
  9
$DIMLFAC
 40
1.0
  9
$DIMTOFL
 70
     1
  9
$DIMTVP
 40
0.0
  9
$DIMTIX
 70
     0
  9
$DIMSOXD
 70
     0
  9
$DIMSAH
 70
     0
  9
$DIMBLK1
  1

  9
$DIMBLK2
  1

  9
$DIMSTYLE
  2
ISO-25
  9
$DIMCLRD
 70
     0
  9
$DIMCLRE
 70
     0
  9
$DIMCLRT
 70
     0
  9
$DIMTFAC
 40
1.0
  9
$DIMGAP
 40
1.524
  9
$DIMJUST
 70
     0
  9
$DIMSD1
 70
     0
  9
$DIMSD2
 70
     0
  9
$DIMTOLJ
 70
     0
  9
$DIMTZIN
 70
     0
  9
$DIMALTZ
 70
     0
  9
$DIMALTTZ
 70
     0
  9
$DIMUPT
 70
     0
  9
$DIMDEC
 70
     2
  9
$DIMTDEC
 70
     2
  9
$DIMALTU
 70
     2
  9
$DIMALTTD
 70
     3
  9
$DIMTXSTY
  7
Standard
  9
$DIMAUNIT
 70
     0
  9
$DIMADEC
 70
     2
  9
$DIMALTRND
 40
0.0
  9
$DIMAZIN
 70
     0
  9
$DIMDSEP
 70
    44
  9
$DIMATFIT
 70
     3
  9
$DIMFRAC
 70
     0
  9
$DIMLDRBLK
  1

  9
$DIMLUNIT
 70
     2
  9
$DIMLWD
 70
    -2
  9
$DIMLWE
 70
    -2
  9
$DIMTMOVE
 70
     0
  9
$LUNITS
 70
     2
  9
$LUPREC
 70
     2
  9
$SKETCHINC
 40
1.0
  9
$FILLETRAD
 40
10.0
  9
$AUNITS
 70
     0
  9
$AUPREC
 70
     2
  9
$MENU
  1
.
  9
$ELEVATION
 40
0.0
  9
$PELEVATION
 40
0.0
  9
$THICKNESS
 40
0.0
  9
$LIMCHECK
 70
     0
  9
$CHAMFERA
 40
0.0
  9
$CHAMFERB
 40
0.0
  9
$CHAMFERC
 40
0.0
  9
$CHAMFERD
 40
0.0
  9
$SKPOLY
 70
     0
  9
$TDCREATE
 40
2458985.651608055
  9
$TDUCREATE
 40
2458985.526608055
  9
$TDUPDATE
 40
2458985.651608368
  9
$TDUUPDATE
 40
2458985.526608368
  9
$TDINDWG
 40
0.0000000116
  9
$TDUSRTIMER
 40
0.0000000116
  9
$USRTIMER
 70
     1
  9
$ANGBASE
 50
0.0
  9
$ANGDIR
 70
     0
  9
$PDMODE
 70
     0
  9
$PDSIZE
 40
-1.0
  9
$PLINEWID
 40
0.0
  9
$SPLFRAME
 70
     0
  9
$SPLINETYPE
 70
     6
  9
$SPLINESEGS
 70
     8
  9
$HANDSEED
  5
C1
  9
$SURFTAB1
 70
     6
  9
$SURFTAB2
 70
     6
  9
$SURFTYPE
 70
     6
  9
$SURFU
 70
     6
  9
$SURFV
 70
     6
  9
$UCSBASE
  2

  9
$UCSNAME
  2

  9
$UCSORG
 10
0.0
 20
0.0
 30
0.0
  9
$UCSXDIR
 10
1.0
 20
0.0
 30
0.0
  9
$UCSYDIR
 10
0.0
 20
1.0
 30
0.0
  9
$UCSORTHOREF
  2

  9
$UCSORTHOVIEW
 70
     0
  9
$UCSORGTOP
 10
0.0
 20
0.0
 30
0.0
  9
$UCSORGBOTTOM
 10
0.0
 20
0.0
 30
0.0
  9
$UCSORGLEFT
 10
0.0
 20
0.0
 30
0.0
  9
$UCSORGRIGHT
 10
0.0
 20
0.0
 30
0.0
  9
$UCSORGFRONT
 10
0.0
 20
0.0
 30
0.0
  9
$UCSORGBACK
 10
0.0
 20
0.0
 30
0.0
  9
$PUCSBASE
  2

  9
$PUCSNAME
  2

  9
$PUCSORG
 10
0.0
 20
0.0
 30
0.0
  9
$PUCSXDIR
 10
1.0
 20
0.0
 30
0.0
  9
$PUCSYDIR
 10
0.0
 20
1.0
 30
0.0
  9
$PUCSORTHOREF
  2

  9
$PUCSORTHOVIEW
 70
     0
  9
$PUCSORGTOP
 10
0.0
 20
0.0
 30
0.0
  9
$PUCSORGBOTTOM
 10
0.0
 20
0.0
 30
0.0
  9
$PUCSORGLEFT
 10
0.0
 20
0.0
 30
0.0
  9
$PUCSORGRIGHT
 10
0.0
 20
0.0
 30
0.0
  9
$PUCSORGFRONT
 10
0.0
 20
0.0
 30
0.0
  9
$PUCSORGBACK
 10
0.0
 20
0.0
 30
0.0
  9
$USERI1
 70
     0
  9
$USERI2
 70
     0
  9
$USERI3
 70
     0
  9
$USERI4
 70
     0
  9
$USERI5
 70
     0
  9
$USERR1
 40
0.0
  9
$USERR2
 40
0.0
  9
$USERR3
 40
0.0
  9
$USERR4
 40
0.0
  9
$USERR5
 40
0.0
  9
$WORLDVIEW
 70
     1
  9
$SHADEDGE
 70
     3
  9
$SHADEDIF
 70
    70
  9
$TILEMODE
 70
     1
  9
$MAXACTVP
 70
    64
  9
$PINSBASE
 10
0.0
 20
0.0
 30
0.0
  9
$PLIMCHECK
 70
     0
  9
$PEXTMIN
 10
1.0000000000E+20
 20
1.0000000000E+20
 30
1.0000000000E+20
  9
$PEXTMAX
 10
-1.0000000000E+20
 20
-1.0000000000E+20
 30
-1.0000000000E+20
  9
$PLIMMIN
 10
0.0
 20
0.0
  9
$PLIMMAX
 10
420.0
 20
297.0
  9
$UNITMODE
 70
     0
  9
$VISRETAIN
 70
     1
  9
$PLINEGEN
 70
     0
  9
$PSLTSCALE
 70
     1
  9
$TREEDEPTH
 70
  3020
  9
$CMLSTYLE
  2
Standard
  9
$CMLJUST
 70
     0
  9
$CMLSCALE
 40
20.0
  9
$PROXYGRAPHICS
 70
     1
  9
$MEASUREMENT
 70
     1
  9
$CELWEIGHT
370
    -1
  9
$ENDCAPS
280
     0
  9
$JOINSTYLE
280
     0
  9
$LWDISPLAY
290
     1
  9
$INSUNITS
 70
     4
  9
$HYPERLINKBASE
  1

  9
$STYLESHEET
  1

  9
$XEDIT
290
     1
  9
$CEPSNTYPE
380
     0
  9
$PSTYLEMODE
290
     1
  9
$FINGERPRINTGUID
  2
{dd5b4652-ad69-4b18-be69-82f6322050a6}
  9
$VERSIONGUID
  2
{FAEB1C32-E019-11D5-929B-00C0DF256EC4}
  9
$EXTNAMES
290
     1
  9
$PSVPSCALE
 40
0.0
  9
$OLESTARTUP
290
     0
  0
ENDSEC
  0
SECTION
  2
CLASSES
  0
CLASS
  1
ACDBDICTIONARYWDFLT
  2
AcDbDictionaryWithDefault
  3
ObjectDBX Classes
 90
        0
280
     0
281
     0
  0
CLASS
  1
VISUALSTYLE
  2
AcDbVisualStyle
  3
ObjectDBX Classes
 90
     4095
280
     0
281
     0
  0
CLASS
  1
MATERIAL
  2
AcDbMaterial
  3
ObjectDBX Classes
 90
     1153
280
     0
281
     0
  0
CLASS
  1
SCALE
  2
AcDbScale
  3
ObjectDBX Classes
 90
     1153
280
     0
281
     0
  0
CLASS
  1
TABLESTYLE
  2
AcDbTableStyle
  3
ObjectDBX Classes
 90
     4095
280
     0
281
     0
  0
CLASS
  1
MLEADERSTYLE
  2
AcDbMLeaderStyle
  3
ACDB_MLEADERSTYLE_CLASS
 90
     4095
280
     0
281
     0
  0
CLASS
  1
SUN
  2
AcDbSun
  3
SCENEOE
 90
     1153
280
     0
281
     0
  0
CLASS
  1
ACDBPLACEHOLDER
  2
AcDbPlaceHolder
  3
ObjectDBX Classes
 90
        0
280
     0
281
     0
  0
CLASS
  1
LAYOUT
  2
AcDbLayout
  3
ObjectDBX Classes
 90
        0
280
     0
281
     0
  0
ENDSEC
  0
SECTION
  2
TABLES
  0
TABLE
  2
VPORT
  5
8
330
0
100
AcDbSymbolTable
 70
     1
  0
VPORT
  5
29
330
8
100
AcDbSymbolTableRecord
100
AcDbViewportTableRecord
  2
*Active
 70
     0
 10
0.0
 20
0.0
 11
1.0
 21
1.0
 12
139.7
 22
107.95
 13
0.0
 23
0.0
 14
10.0
 24
10.0
 15
10.0
 25
10.0
 16
0.0
 26
0.0
 36
1.0
 17
0.0
 27
0.0
 37
0.0
 40
215.9
 41
1.2941176471
 42
50.0
 43
0.0
 44
0.0
 50
0.0
 51
0.0
 71
     0
 72
  2000
 73
     1
 74
     3
 75
     0
 76
     0
 77
     0
 78
     0
281
     0
 65
     1
110
0.0
120
0.0
130
0.0
111
1.0
121
0.0
131
0.0
112
0.0
122
1.0
132
0.0
 79
     0
146
0.0
  0
ENDTAB
  0
TABLE
  2
LTYPE
  5
5
330
0
100
AcDbSymbolTable
 70
     6
  0
LTYPE
  5
14
330
5
100
AcDbSymbolTableRecord
100
AcDbLinetypeTableRecord
  2
ByBlock
 70
     0
  3

 72
    65
 73
     0
 40
0.0
  0
LTYPE
  5
15
330
5
100
AcDbSymbolTableRecord
100
AcDbLinetypeTableRecord
  2
ByLayer
 70
     0
  3

 72
    65
 73
     0
 40
0.0
  0
LTYPE
  5
16
330
5
100
AcDbSymbolTableRecord
100
AcDbLinetypeTableRecord
  2
Continuous
 70
     0
  3
Solid line
 72
    65
 73
     0
 40
0.0
  0
LTYPE
  5
6E
330
5
100
AcDbSymbolTableRecord
100
AcDbLinetypeTableRecord
  2
HIDDEN
 70
     0
  3
Hidden __ __ __ __ __ __ __ __ __ __ __ __ __ __
 72
    65
 73
     2
 40
1.905
 49
1.27
 74
     0
 49
-0.635
 74
     0
  0
LTYPE
  5
6F
330
5
100
AcDbSymbolTableRecord
100
AcDbLinetypeTableRecord
  2
PHANTOM
 70
     0
  3
Phantom ______  __  __  ______  __  __  ______
 72
    65
 73
     6
 40
12.7
 49
6.35
 74
     0
 49
-1.27
 74
     0
 49
1.27
 74
     0
 49
-1.27
 74
     0
 49
1.27
 74
     0
 49
-1.27
 74
     0
  0
LTYPE
  5
70
330
5
100
AcDbSymbolTableRecord
100
AcDbLinetypeTableRecord
  2
CENTER
 70
     0
  3
Center ____ _ ____ _ ____ _ ____ _ ____ _ ____
 72
    65
 73
     4
 40
10.16
 49
6.35
 74
     0
 49
-1.27
 74
     0
 49
1.27
 74
     0
 49
-1.27
 74
     0
  0
LTYPE
  5
71
330
5
100
AcDbSymbolTableRecord
100
AcDbLinetypeTableRecord
  2
CENTERX2
 70
     0
  3
Center (2x) ________  __  ________  __  _____
 72
    65
 73
     4
 40
20.32
 49
12.7
 74
     0
 49
-2.54
 74
     0
 49
2.54
 74
     0
 49
-2.54
 74
     0
  0
LTYPE
  5
72
330
5
100
AcDbSymbolTableRecord
100
AcDbLinetypeTableRecord
  2
DOT2
 70
     0
  3
Dot (.5x) ........................................
 72
    65
 73
     2
 40
0.635
 49
0.0
 74
     0
 49
-0.635
 74
     0
  0
ENDTAB
  0
TABLE
  2
LAYER
  5
2
330
0
100
AcDbSymbolTable
 70
    17
  0
LAYER
  5
10
330
2
100
AcDbSymbolTableRecord
100
AcDbLayerTableRecord
  2
0
 70
     0
 62
     7
  6
Continuous
370
    -3
390
F
  0
LAYER
  5
73
330
2
100
AcDbSymbolTableRecord
100
AcDbLayerTableRecord
  2
FORMAT
 70
     0
 62
     7
  6
Continuous
370
    -3
390
F
  0
LAYER
  5
74
330
2
100
AcDbSymbolTableRecord
100
AcDbLayerTableRecord
  2
YARDIMCI_GEOMETRI
 70
     0
 62
    -6
  6
Continuous
290
     0
370
    -3
390
F
  0
LAYER
  5
75
330
2
100
AcDbSymbolTableRecord
100
AcDbLayerTableRecord
  2
SAYFA_CERCEVESI
 70
     0
 62
     7
  6
Continuous
370
    25
390
F
  0
LAYER
  5
76
330
2
100
AcDbSymbolTableRecord
100
AcDbLayerTableRecord
  2
ANTET
 70
     0
 62
     7
  6
Continuous
370
    -3
390
F
  0
LAYER
  5
77
330
2
100
AcDbSymbolTableRecord
100
AcDbLayerTableRecord
  2
OLCU
 70
     0
 62
   150
  6
Continuous
370
    -3
390
F
  0
LAYER
  5
78
330
2
100
AcDbSymbolTableRecord
100
AcDbLayerTableRecord
  2
METIN
 70
     0
 62
    96
  6
Continuous
370
    -3
390
F
  0
LAYER
  5
79
330
2
100
AcDbSymbolTableRecord
100
AcDbLayerTableRecord
  2
BALON
 70
     0
 62
     5
  6
Continuous
370
    -3
390
F
  0
LAYER
  5
7A
330
2
100
AcDbSymbolTableRecord
100
AcDbLayerTableRecord
  2
VURGU
 70
     0
 62
     7
  6
Continuous
370
    -3
390
F
  0
LAYER
  5
7B
330
2
100
AcDbSymbolTableRecord
100
AcDbLayerTableRecord
  2
SILIK
 70
     0
 62
     7
  6
Continuous
370
    -3
390
F
  0
LAYER
  5
7C
330
2
100
AcDbSymbolTableRecord
100
AcDbLayerTableRecord
  2
MODEL
 70
     0
 62
     7
  6
Continuous
370
    -3
390
F
  0
LAYER
  5
7D
330
2
100
AcDbSymbolTableRecord
100
AcDbLayerTableRecord
  2
DETAYLANDıRMA
 70
     0
 62
   190
  6
Continuous
370
    -3
390
F
  0
LAYER
  5
7E
330
2
100
AcDbSymbolTableRecord
100
AcDbLayerTableRecord
  2
TOLERANS
 70
     0
 62
   230
  6
Continuous
370
    -3
390
F
  0
LAYER
  5
7F
330
2
100
AcDbSymbolTableRecord
100
AcDbLayerTableRecord
  2
MERKEZ_CIZGILERI
 70
     0
 62
    30
  6
Continuous
370
    -3
390
F
  0
LAYER
  5
80
330
2
100
AcDbSymbolTableRecord
100
AcDbLayerTableRecord
  2
KESIT-DETAY_CIZGILERI
 70
     0
 62
     7
  6
Continuous
370
    -3
390
F
  0
LAYER
  5
81
330
2
100
AcDbSymbolTableRecord
100
AcDbLayerTableRecord
  2
\U+041E\U+0421\U+0415\U+0412\U+042B\U+0415
 70
     0
 62
     7
  6
Continuous
370
    -3
390
F
  0
LAYER
  5
82
330
2
100
AcDbSymbolTableRecord
100
AcDbLayerTableRecord
  2
\U+0412\U+041E\U+0414\U+042F\U+041D\U+042B\U+0415_\U+0417\U+041D\U+0410\U+041A\U+0418
 70
     0
 62
    11
  6
Continuous
370
    -3
390
F
  0
ENDTAB
  0
TABLE
  2
STYLE
  5
3
330
0
100
AcDbSymbolTable
 70
     1
  0
STYLE
  5
11
330
3
100
AcDbSymbolTableRecord
100
AcDbTextStyleTableRecord
  2
Standard
 70
     0
 40
0.0
 41
1.0
 50
0.0
 71
     0
 42
3.5
  3
txt
  4

  0
ENDTAB
  0
TABLE
  2
VIEW
  5
6
330
0
100
AcDbSymbolTable
 70
     0
  0
ENDTAB
  0
TABLE
  2
UCS
  5
7
330
0
100
AcDbSymbolTable
 70
     0
  0
ENDTAB
  0
TABLE
  2
APPID
  5
9
330
0
100
AcDbSymbolTable
 70
     1
  0
APPID
  5
12
330
9
100
AcDbSymbolTableRecord
100
AcDbRegAppTableRecord
  2
ACAD
 70
     0
  0
ENDTAB
  0
TABLE
  2
DIMSTYLE
  5
A
330
0
100
AcDbSymbolTable
 70
     1
100
AcDbDimStyleTable
  0
DIMSTYLE
105
27
330
A
100
AcDbSymbolTableRecord
100
AcDbDimStyleTableRecord
  2
ISO-25
 70
     0
 41
2.5
 42
0.625
 43
3.75
 44
1.25
 73
     0
 74
     0
 77
     1
 78
     8
140
2.5
141
2.5
143
0.0393700787
147
0.625
171
     3
172
     1
178
     0
271
     2
272
     2
274
     3
278
    44
283
     0
284
     8
340
11
  0
ENDTAB
  0
TABLE
  2
BLOCK_RECORD
  5
1
330
0
100
AcDbSymbolTable
 70
     1
  0
BLOCK_RECORD
  5
1F
330
1
100
AcDbSymbolTableRecord
100
AcDbBlockTableRecord
  2
*Model_Space
340
22
  0
BLOCK_RECORD
  5
1B
330
1
100
AcDbSymbolTableRecord
100
AcDbBlockTableRecord
  2
*Paper_Space
340
1E
  0
BLOCK_RECORD
  5
23
330
1
100
AcDbSymbolTableRecord
100
AcDbBlockTableRecord
  2
*Paper_Space0
340
26
  0
ENDTAB
  0
ENDSEC
  0
SECTION
  2
BLOCKS
  0
BLOCK
  5
20
330
1F
100
AcDbEntity
  8
0
100
AcDbBlockBegin
  2
*Model_Space
 70
     0
 10
0.0
 20
0.0
 30
0.0
  3
*Model_Space
  1

  0
ENDBLK
  5
21
330
1F
100
AcDbEntity
  8
0
100
AcDbBlockEnd
  0
BLOCK
  5
1C
330
1B
100
AcDbEntity
 67
     1
  8
0
100
AcDbBlockBegin
  2
*Paper_Space
 70
     0
 10
0.0
 20
0.0
 30
0.0
  3
*Paper_Space
  1

  0
ENDBLK
  5
1D
330
1B
100
AcDbEntity
 67
     1
  8
0
100
AcDbBlockEnd
  0
BLOCK
  5
24
330
23
100
AcDbEntity
  8
0
100
AcDbBlockBegin
  2
*Paper_Space0
 70
     0
 10
0.0
 20
0.0
 30
0.0
  3
*Paper_Space0
  1

  0
ENDBLK
  5
25
330
23
100
AcDbEntity
  8
0
100
AcDbBlockEnd
  0
ENDSEC
  0
SECTION
  2
ENTITIES
  0
CIRCLE
  5
83
330
1F
100
AcDbEntity
  8
0
  6
Continuous
 62
     7
370
    25
100
AcDbCircle
 10
135.9944086538
 20
118.27271875
 30
0.0
 40
500.0
  0
CIRCLE
  5
84
330
1F
100
AcDbEntity
  8
0
  6
Continuous
 62
     7
370
    25
100
AcDbCircle
 10
135.9944086538
 20
118.27271875
 30
0.0
 40
440.7
  0
CIRCLE
  5
85
330
1F
100
AcDbEntity
  8
0
  6
Continuous
 62
     7
370
    25
100
AcDbCircle
 10
135.9944086538
 20
118.27271875
 30
0.0
 40
525.0
  0
CIRCLE
  5
86
330
1F
100
AcDbEntity
  8
0
  6
Continuous
 62
     7
370
    25
100
AcDbCircle
 10
135.9944086538
 20
118.27271875
 30
0.0
 40
556.0
  0
LINE
  5
87
330
1F
100
AcDbEntity
  8
0
  6
Continuous
 62
     7
370
    25
100
AcDbLine
 10
691.9944086538
 20
1262.3695974841
 30
0.0
 11
691.9944086538
 21
1327.3695974841
 31
0.0
  0
LINE
  5
88
330
1F
100
AcDbEntity
  8
0
  6
Continuous
 62
     7
370
    25
100
AcDbLine
 10
-420.0055913462
 20
1327.3695974841
 30
0.0
 11
-420.0055913462
 21
1262.3695974841
 31
0.0
  0
LINE
  5
89
330
1F
100
AcDbEntity
  8
0
  6
Continuous
 62
     7
370
    25
100
AcDbLine
 10
660.9944086538
 20
1327.3695974841
 30
0.0
 11
635.9944086538
 21
1440.3695974841
 31
0.0
  0
LINE
  5
8A
330
1F
100
AcDbEntity
  8
0
  6
Continuous
 62
     7
370
    25
100
AcDbLine
 10
-364.0055913462
 20
1440.3695974841
 30
0.0
 11
-389.0055913462
 21
1327.3695974841
 31
0.0
  0
LINE
  5
8B
330
1F
100
AcDbEntity
  8
0
  6
Continuous
 62
     7
370
    25
100
AcDbLine
 10
635.9944086538
 20
1440.3695974841
 30
0.0
 11
635.9944086538
 21
1819.3695974841
 31
0.0
  0
LINE
  5
8C
330
1F
100
AcDbEntity
  8
0
  6
Continuous
 62
     7
370
    25
100
AcDbLine
 10
-364.0055913462
 20
1819.3695974841
 30
0.0
 11
-364.0055913462
 21
1440.3695974841
 31
0.0
  0
LINE
  5
8D
330
1F
100
AcDbEntity
  8
0
  6
Continuous
 62
     7
370
    25
100
AcDbLine
 10
691.9944086538
 20
1262.3695974841
 30
0.0
 11
-420.0055913462
 21
1262.3695974841
 31
0.0
  0
LINE
  5
8E
330
1F
100
AcDbEntity
  8
0
  6
Continuous
 62
     7
370
    25
100
AcDbLine
 10
691.9944086538
 20
1327.3695974841
 30
0.0
 11
-420.0055913462
 21
1327.3695974841
 31
0.0
  0
LINE
  5
8F
330
1F
100
AcDbEntity
  8
0
  6
Continuous
 62
     7
370
    25
100
AcDbLine
 10
635.9944086538
 20
1440.3695974841
 30
0.0
 11
-364.0055913462
 21
1440.3695974841
 31
0.0
  0
LINE
  5
90
330
1F
100
AcDbEntity
  8
0
  6
Continuous
 62
     7
370
    25
100
AcDbLine
 10
635.9944086538
 20
1819.3695974841
 30
0.0
 11
-364.0055913462
 21
1819.3695974841
 31
0.0
  0
LINE
  5
91
330
1F
100
AcDbEntity
  8
0
  6
Continuous
 62
     7
370
    25
100
AcDbLine
 10
-993.1372319902
 20
674.27271875
 30
0.0
 11
-1058.1372319902
 21
674.27271875
 31
0.0
  0
LINE
  5
92
330
1F
100
AcDbEntity
  8
0
  6
Continuous
 62
     7
370
    25
100
AcDbLine
 10
-1058.1372319902
 20
-437.72728125
 30
0.0
 11
-993.1372319902
 21
-437.72728125
 31
0.0
  0
LINE
  5
93
330
1F
100
AcDbEntity
  8
0
  6
Continuous
 62
     7
370
    25
100
AcDbLine
 10
-1058.1372319902
 20
643.27271875
 30
0.0
 11
-1171.1372319902
 21
618.27271875
 31
0.0
  0
LINE
  5
94
330
1F
100
AcDbEntity
  8
0
  6
Continuous
 62
     7
370
    25
100
AcDbLine
 10
-1171.1372319902
 20
-381.72728125
 30
0.0
 11
-1058.1372319902
 21
-406.72728125
 31
0.0
  0
LINE
  5
95
330
1F
100
AcDbEntity
  8
0
  6
Continuous
 62
     7
370
    25
100
AcDbLine
 10
-1171.1372319902
 20
618.27271875
 30
0.0
 11
-1550.1372319902
 21
618.27271875
 31
0.0
  0
LINE
  5
96
330
1F
100
AcDbEntity
  8
0
  6
Continuous
 62
     7
370
    25
100
AcDbLine
 10
-1550.1372319902
 20
-381.72728125
 30
0.0
 11
-1171.1372319902
 21
-381.72728125
 31
0.0
  0
LINE
  5
97
330
1F
100
AcDbEntity
  8
0
  6
Continuous
 62
     7
370
    25
100
AcDbLine
 10
-993.1372319902
 20
674.27271875
 30
0.0
 11
-993.1372319902
 21
-437.72728125
 31
0.0
  0
LINE
  5
98
330
1F
100
AcDbEntity
  8
0
  6
Continuous
 62
     7
370
    25
100
AcDbLine
 10
-1058.1372319902
 20
674.27271875
 30
0.0
 11
-1058.1372319902
 21
-437.72728125
 31
0.0
  0
LINE
  5
99
330
1F
100
AcDbEntity
  8
0
  6
Continuous
 62
     7
370
    25
100
AcDbLine
 10
-1171.1372319902
 20
618.27271875
 30
0.0
 11
-1171.1372319902
 21
-381.72728125
 31
0.0
  0
LINE
  5
9A
330
1F
100
AcDbEntity
  8
0
  6
Continuous
 62
     7
370
    25
100
AcDbLine
 10
-1550.1372319902
 20
618.27271875
 30
0.0
 11
-1550.1372319902
 21
-381.72728125
 31
0.0
  0
LINE
  5
9B
330
1F
100
AcDbEntity
  8
0
  6
Continuous
 62
     7
370
    25
100
AcDbLine
 10
-420.0055913462
 20
-1100.3024769605
 30
0.0
 11
-420.0055913462
 21
-1165.3024769605
 31
0.0
  0
LINE
  5
9C
330
1F
100
AcDbEntity
  8
0
  6
Continuous
 62
     7
370
    25
100
AcDbLine
 10
691.9944086538
 20
-1165.3024769605
 30
0.0
 11
691.9944086538
 21
-1100.3024769605
 31
0.0
  0
LINE
  5
9D
330
1F
100
AcDbEntity
  8
0
  6
Continuous
 62
     7
370
    25
100
AcDbLine
 10
-389.0055913462
 20
-1165.3024769605
 30
0.0
 11
-364.0055913462
 21
-1278.3024769605
 31
0.0
  0
LINE
  5
9E
330
1F
100
AcDbEntity
  8
0
  6
Continuous
 62
     7
370
    25
100
AcDbLine
 10
635.9944086538
 20
-1278.3024769605
 30
0.0
 11
660.9944086538
 21
-1165.3024769605
 31
0.0
  0
LINE
  5
9F
330
1F
100
AcDbEntity
  8
0
  6
Continuous
 62
     7
370
    25
100
AcDbLine
 10
-364.0055913462
 20
-1278.3024769605
 30
0.0
 11
-364.0055913462
 21
-1657.3024769605
 31
0.0
  0
LINE
  5
A0
330
1F
100
AcDbEntity
  8
0
  6
Continuous
 62
     7
370
    25
100
AcDbLine
 10
635.9944086538
 20
-1657.3024769605
 30
0.0
 11
635.9944086538
 21
-1278.3024769605
 31
0.0
  0
LINE
  5
A1
330
1F
100
AcDbEntity
  8
0
  6
Continuous
 62
     7
370
    25
100
AcDbLine
 10
-420.0055913462
 20
-1100.3024769605
 30
0.0
 11
691.9944086538
 21
-1100.3024769605
 31
0.0
  0
LINE
  5
A2
330
1F
100
AcDbEntity
  8
0
  6
Continuous
 62
     7
370
    25
100
AcDbLine
 10
-420.0055913462
 20
-1165.3024769605
 30
0.0
 11
691.9944086538
 21
-1165.3024769605
 31
0.0
  0
LINE
  5
A3
330
1F
100
AcDbEntity
  8
0
  6
Continuous
 62
     7
370
    25
100
AcDbLine
 10
-364.0055913462
 20
-1278.3024769605
 30
0.0
 11
635.9944086538
 21
-1278.3024769605
 31
0.0
  0
LINE
  5
A4
330
1F
100
AcDbEntity
  8
0
  6
Continuous
 62
     7
370
    25
100
AcDbLine
 10
-364.0055913462
 20
-1657.3024769605
 30
0.0
 11
635.9944086538
 21
-1657.3024769605
 31
0.0
  0
LINE
  5
A5
330
1F
100
AcDbEntity
  8
0
  6
Continuous
 62
     7
370
    25
100
AcDbLine
 10
1379.5395068632
 20
-437.72728125
 30
0.0
 11
1444.5395068632
 21
-437.72728125
 31
0.0
  0
LINE
  5
A6
330
1F
100
AcDbEntity
  8
0
  6
Continuous
 62
     7
370
    25
100
AcDbLine
 10
1444.5395068632
 20
674.27271875
 30
0.0
 11
1379.5395068632
 21
674.27271875
 31
0.0
  0
LINE
  5
A7
330
1F
100
AcDbEntity
  8
0
  6
Continuous
 62
     7
370
    25
100
AcDbLine
 10
1444.5395068632
 20
-406.72728125
 30
0.0
 11
1557.5395068632
 21
-381.72728125
 31
0.0
  0
LINE
  5
A8
330
1F
100
AcDbEntity
  8
0
  6
Continuous
 62
     7
370
    25
100
AcDbLine
 10
1557.5395068632
 20
618.27271875
 30
0.0
 11
1444.5395068632
 21
643.27271875
 31
0.0
  0
LINE
  5
A9
330
1F
100
AcDbEntity
  8
0
  6
Continuous
 62
     7
370
    25
100
AcDbLine
 10
1557.5395068632
 20
-381.72728125
 30
0.0
 11
1936.5395068632
 21
-381.72728125
 31
0.0
  0
LINE
  5
AA
330
1F
100
AcDbEntity
  8
0
  6
Continuous
 62
     7
370
    25
100
AcDbLine
 10
1936.5395068632
 20
618.27271875
 30
0.0
 11
1557.5395068632
 21
618.27271875
 31
0.0
  0
LINE
  5
AB
330
1F
100
AcDbEntity
  8
0
  6
Continuous
 62
     7
370
    25
100
AcDbLine
 10
1379.5395068632
 20
118.27271875
 30
0.0
 11
1379.5395068632
 21
674.27271875
 31
0.0
  0
LINE
  5
AC
330
1F
100
AcDbEntity
  8
0
  6
Continuous
 62
     7
370
    25
100
AcDbLine
 10
1379.5395068632
 20
-437.72728125
 30
0.0
 11
1379.5395068632
 21
118.27271875
 31
0.0
  0
LINE
  5
AD
330
1F
100
AcDbEntity
  8
0
  6
Continuous
 62
     7
370
    25
100
AcDbLine
 10
1444.5395068632
 20
118.27271875
 30
0.0
 11
1444.5395068632
 21
674.27271875
 31
0.0
  0
LINE
  5
AE
330
1F
100
AcDbEntity
  8
0
  6
Continuous
 62
     7
370
    25
100
AcDbLine
 10
1444.5395068632
 20
-437.72728125
 30
0.0
 11
1444.5395068632
 21
118.27271875
 31
0.0
  0
LINE
  5
AF
330
1F
100
AcDbEntity
  8
0
  6
Continuous
 62
     7
370
    25
100
AcDbLine
 10
1557.5395068632
 20
118.27271875
 30
0.0
 11
1557.5395068632
 21
618.27271875
 31
0.0
  0
LINE
  5
B0
330
1F
100
AcDbEntity
  8
0
  6
Continuous
 62
     7
370
    25
100
AcDbLine
 10
1557.5395068632
 20
-381.72728125
 30
0.0
 11
1557.5395068632
 21
118.27271875
 31
0.0
  0
LINE
  5
B1
330
1F
100
AcDbEntity
  8
0
  6
Continuous
 62
     7
370
    25
100
AcDbLine
 10
1936.5395068632
 20
118.27271875
 30
0.0
 11
1936.5395068632
 21
618.27271875
 31
0.0
  0
LINE
  5
B2
330
1F
100
AcDbEntity
  8
0
  6
Continuous
 62
     7
370
    25
100
AcDbLine
 10
1936.5395068632
 20
-381.72728125
 30
0.0
 11
1936.5395068632
 21
118.27271875
 31
0.0
  0
LINE
  5
B3
330
1F
100
AcDbEntity
  8
0
  6
Continuous
 62
     7
370
    25
100
AcDbLine
 10
1827.6896715639
 20
-845.5914704133
 30
0.0
 11
1559.6962014942
 21
-690.8821332229
 31
0.0
  0
LINE
  5
B4
330
1F
100
AcDbEntity
  8
0
  6
Continuous
 62
     7
370
    25
100
AcDbLine
 10
1059.7368351762
 20
-1556.9309956036
 30
0.0
 11
1327.7303052459
 21
-1711.640332794
 31
0.0
  0
LINE
  5
B5
330
1F
100
AcDbEntity
  8
0
  6
Continuous
 62
     7
370
    25
100
AcDbLine
 10
1875.7873769422
 20
-851.9560070784
 30
0.0
 11
1808.010379049
 21
-834.230856662
 31
0.0
  0
LINE
  5
B6
330
1F
100
AcDbEntity
  8
0
  6
Continuous
 62
     7
370
    25
100
AcDbLine
 10
1308.051012731
 20
-1700.2797190426
 30
0.0
 11
1357.2946183426
 21
-1750.1091250903
 31
0.0
  0
LINE
  5
B7
330
1F
100
AcDbEntity
  8
0
  6
Continuous
 62
     7
370
    25
100
AcDbLine
 10
1981.5524031289
 20
-869.7530560722
 30
0.0
 11
1935.5904623518
 21
-843.219792438
 31
0.0
  0
LINE
  5
B8
330
1F
100
AcDbEntity
  8
0
  6
Continuous
 62
     7
370
    25
100
AcDbLine
 10
1379.6356470061
 20
-1806.2661274053
 30
0.0
 11
1425.5975877832
 21
-1832.7993910395
 31
0.0
  0
LWPOLYLINE
  5
B9
330
1F
100
AcDbEntity
  8
0
  6
Continuous
 62
     7
370
    25
100
AcDbPolyline
 90
      238
 70
   128
 43
0.0
 10
956.1631277419
 20
-1328.0085923689
 10
956.2873680782
 20
-1317.1143461944
 10
956.6600017699
 20
-1306.0843117603
 10
957.2807669265
 20
-1294.9262410794
 10
958.1492272683
 20
-1283.6479761493
 10
959.2647724331
 20
-1272.2574434416
 10
960.6266184054
 20
-1260.7626483306
 10
962.2338080668
 20
-1249.1716694672
 10
964.0852118691
 20
-1237.4926531011
 10
966.1795286284
 20
-1225.7338073557
 10
968.5152864388
 20
-1213.9033964592
 10
971.0908437077
 20
-1202.0097349365
 10
973.9043903091
 20
-1190.0611817655
 10
976.9539488556
 20
-1178.0661345027
 10
980.2373760888
 20
-1166.0330233809
 10
983.7523643848
 20
-1153.9703053846
 10
987.4964433765
 20
-1141.8864583063
 10
991.4669816898
 20
-1129.7899747882
 10
995.6611887927
 20
-1117.6893563536
 10
1000.0761169567
 20
-1105.5931074317
 10
1004.7086633284
 20
-1093.5097293809
 10
1009.5555721105
 20
-1081.4477145137
 10
1014.6134368494
 20
-1069.4155401285
 10
1019.87870283
 20
-1057.4216625515
 10
1025.3476695734
 20
-1045.4745111934
 10
1031.0164934379
 20
-1033.5824826254
 10
1036.8811903204
 20
-1021.7539346779
 10
1042.9376384565
 20
-1009.9971805664
 10
1049.1815813169
 20
-998.3204830491
 10
1055.6086305995
 20
-986.7320486196
 10
1062.2142693132
 20
-975.2400217395
 10
1068.9938549524
 20
-963.8524791141
 10
1075.9426227602
 20
-952.5774240163
 10
1083.0556890767
 20
-941.4227806616
 10
1090.3280547714
 20
-930.3963886391
 10
1097.754608757
 20
-919.5059974016
 10
1105.3301315808
 20
-908.7592608191
 10
1113.0492990937
 20
-898.1637318
 10
1120.9066861916
 20
-887.7268569824
 10
1128.8967706285
 20
-877.455971501
 10
1137.0139368971
 20
-867.3582938312
 10
1145.2524801763
 20
-857.4409207166
 10
1153.6066103397
 20
-847.7108221811
 10
1162.0704560256
 20
-838.17483663
 10
1170.6380687628
 20
-828.8396660444
 10
1179.3034271522
 20
-819.7118712705
 10
1188.0604410976
 20
-810.7978674091
 10
1196.9029560867
 20
-802.1039193065
 10
1205.8247575162
 20
-793.6361371517
 10
1214.8195750596
 20
-785.4004721824
 10
1223.8810870738
 20
-777.4027125019
 10
1233.0029250423
 20
-769.6484790115
 10
1242.178678051
 20
-762.1432214599
 10
1251.4018972938
 20
-754.8922146132
 10
1260.6661006047
 20
-747.9005545478
 10
1269.9647770139
 20
-741.1731550686
 10
1279.2913913236
 20
-734.7147442557
 10
1288.6393887007
 20
-728.5298611414
 10
1298.0021992843
 20
-722.6228525201
 10
1307.3732428023
 20
-716.9978698936
 10
1316.7459331966
 20
-711.6588665528
 10
1326.1136832514
 20
-706.6095947998
 10
1335.4699092235
 20
-701.8536033108
 10
1344.8080354684
 20
-697.3942346416
 10
1354.1214990626
 20
-693.2346228788
 10
1363.4037544156
 20
-689.3776914368
 10
1372.6482778704
 20
-685.8261510038
 10
1381.8485722884
 20
-682.5824976358
 10
1390.9981716155
 20
-679.6490110033
 10
1400.0906454265
 20
-677.0277527885
 10
1409.1196034448
 20
-674.7205652364
 10
1418.0787000331
 20
-672.7290698603
 10
1426.9616386533
 20
-671.0546663021
 10
1435.7621762922
 20
-669.6985313484
 10
1444.4741278485
 20
-668.6616181038
 10
1453.09137048
 20
-667.9446553206
 10
1461.6078479071
 20
-667.5481468872
 10
1470.0175746686
 20
-667.4723714733
 10
1478.314640329
 20
-667.7173823347
 10
1486.4932136318
 20
-668.2830072755
 10
1494.5475465983
 20
-669.168848769
 10
1502.471978567
 20
-670.3742842375
 10
1510.260940172
 20
-671.8984664894
 10
1517.9089572572
 20
-673.7403243152
 10
1525.4106547239
 20
-675.8985632395
 10
1532.7607603079
 20
-678.3716664318
 10
1539.9541082854
 20
-681.1578957715
 10
1546.9856431033
 20
-684.2552930704
 10
1553.8504229323
 20
-687.6616814483
 10
1560.5436231402
 20
-691.3746668631
 10
1567.0605396823
 20
-695.3916397936
 10
1573.396592408
 20
-699.709777073
 10
1579.5473282794
 20
-704.3260438736
 10
1585.5084245011
 20
-709.2371958393
 10
1591.2756915582
 20
-714.4397813661
 10
1596.8450761606
 20
-719.9301440275
 10
1602.2126640923
 20
-725.7044251446
 10
1607.3746829614
 20
-731.7585664979
 10
1612.3275048523
 20
-738.0883131796
 10
1617.0676488748
 20
-744.6892165837
 10
1621.5917836107
 20
-751.5566375327
 10
1625.8967294553
 20
-758.6857495381
 10
1629.979460852
 20
-766.0715421926
 10
1633.8371084183
 20
-773.7088246909
 10
1637.466960963
 20
-781.5922294787
 10
1640.8664673913
 20
-789.7162160243
 10
1644.033238498
 20
-798.0750747131
 10
1646.9650486463
 20
-806.6629308599
 10
1649.6598373322
 20
-815.473748838
 10
1652.1157106327
 20
-824.5013363212
 10
1654.3309425368
 20
-833.7393486355
 10
1656.3039761586
 20
-843.1812932181
 10
1658.0334248313
 20
-852.8205341811
 10
1659.5180730819
 20
-862.6502969746
 10
1660.7568774857
 20
-872.663673148
 10
1661.7489673991
 20
-882.8536252059
 10
1662.493645572
 20
-893.2129915532
 10
1662.9903886375
 20
-903.7344915293
 10
1663.2388474799
 20
-914.4107305242
 10
1663.2388474799
 20
-925.2342051761
 10
1662.9903886375
 20
-936.1973086443
 10
1662.493645572
 20
-947.2923359559
 10
1661.7489673991
 20
-958.5114894206
 10
1660.7568774857
 20
-969.8468841111
 10
1659.5180730819
 20
-981.2905534045
 10
1658.0334248313
 20
-992.8344545817
 10
1656.3039761586
 20
-1004.4704744795
 10
1654.3309425368
 20
-1016.1904351929
 10
1652.1157106327
 20
-1027.9860998225
 10
1649.6598373322
 20
-1039.8491782634
 10
1646.9650486463
 20
-1051.7713330316
 10
1644.033238498
 20
-1063.744185124
 10
1640.8664673913
 20
-1075.7593199065
 10
1637.466960963
 20
-1087.8082930286
 10
1633.8371084182
 20
-1099.8826363578
 10
1629.979460852
 20
-1111.9738639313
 10
1625.8967294553
 20
-1124.0734779198
 10
1621.5917836107
 20
-1136.1729745999
 10
1617.0676488748
 20
-1148.2638503306
 10
1612.3275048523
 20
-1160.3376075301
 10
1607.3746829614
 20
-1172.3857606473
 10
1602.2126640922
 20
-1184.399842126
 10
1596.8450761606
 20
-1196.3714083561
 10
1591.2756915581
 20
-1208.2920456072
 10
1585.5084245011
 20
-1220.1533759427
 10
1579.5473282794
 20
-1231.9470631071
 10
1573.396592408
 20
-1243.6648183854
 10
1567.0605396823
 20
-1255.2984064282
 10
1560.5436231402
 20
-1266.8396510395
 10
1553.8504229323
 20
-1278.2804409234
 10
1546.9856431033
 20
-1289.6127353842
 10
1539.9541082854
 20
-1300.828569978
 10
1532.7607603079
 20
-1311.9200621101
 10
1525.4106547239
 20
-1322.8794165747
 10
1517.9089572572
 20
-1333.6989310337
 10
1510.260940172
 20
-1344.3710014297
 10
1502.471978567
 20
-1354.8881273306
 10
1494.5475465983
 20
-1365.2429172006
 10
1486.4932136318
 20
-1375.4280935953
 10
1478.314640329
 20
-1385.4364982763
 10
1470.0175746686
 20
-1395.2610972419
 10
1461.6078479071
 20
-1404.8949856709
 10
1453.09137048
 20
-1414.3313927753
 10
1444.4741278485
 20
-1423.5636865586
 10
1435.7621762922
 20
-1432.5853784774
 10
1426.9616386533
 20
-1441.390128001
 10
1418.0787000331
 20
-1449.9717470682
 10
1409.1196034448
 20
-1458.3242044358
 10
1400.0906454265
 20
-1466.4416299174
 10
1390.9981716155
 20
-1474.3183185097
 10
1381.8485722884
 20
-1481.9487344013
 10
1372.6482778704
 20
-1489.3275148635
 10
1363.4037544156
 20
-1496.4494740195
 10
1354.1214990626
 20
-1503.3096064891
 10
1344.8080354684
 20
-1509.903090906
 10
1335.4699092235
 20
-1516.225293307
 10
1326.1136832514
 20
-1522.2717703883
 10
1316.7459331966
 20
-1528.0382726285
 10
1307.3732428023
 20
-1533.5207472752
 10
1298.0021992843
 20
-1538.7153411934
 10
1288.6393887007
 20
-1543.6184035731
 10
1279.2913913235
 20
-1548.2264884957
 10
1269.9647770139
 20
-1552.5363573554
 10
1260.6661006047
 20
-1556.5449811356
 10
1251.4018972937
 20
-1560.2495425376
 10
1242.178678051
 20
-1563.6474379603
 10
1233.0029250423
 20
-1566.7362793308
 10
1223.8810870738
 20
-1569.5138957821
 10
1214.8195750596
 20
-1571.978335179
 10
1205.8247575162
 20
-1574.1278654902
 10
1196.9029560867
 20
-1575.9609760053
 10
1188.0604410976
 20
-1577.476378397
 10
1179.3034271522
 20
-1578.6730076261
 10
1170.6380687628
 20
-1579.5500226902
 10
1162.0704560255
 20
-1580.1068072148
 10
1153.6066103397
 20
-1580.3429698865
 10
1145.2524801763
 20
-1580.258344728
 10
1137.0139368971
 20
-1579.8529912146
 10
1128.8967706285
 20
-1579.1271942325
 10
1120.9066861916
 20
-1578.0814638788
 10
1113.0492990937
 20
-1576.7165351027
 10
1105.3301315808
 20
-1575.0333671891
 10
1097.754608757
 20
-1573.0331430843
 10
1090.3280547714
 20
-1570.7172685647
 10
1083.0556890767
 20
-1568.087371249
 10
1075.9426227602
 20
-1565.1452994538
 10
1068.9938549524
 20
-1561.8931208951
 10
1062.2142693132
 20
-1558.3331212349
 10
1055.6086305995
 20
-1554.4678024745
 10
1049.1815813169
 20
-1550.2998811967
 10
1042.9376384565
 20
-1545.8322866559
 10
1036.8811903204
 20
-1541.0681587201
 10
1031.0164934379
 20
-1536.0108456634
 10
1025.3476695733
 20
-1530.6639018133
 10
1019.87870283
 20
-1525.0310850527
 10
1014.6134368494
 20
-1519.1163541786
 10
1009.5555721105
 20
-1512.9238661197
 10
1004.7086633284
 20
-1506.4579730155
 10
1000.0761169567
 20
-1499.7232191569
 10
995.6611887927
 20
-1492.7243377926
 10
991.4669816898
 20
-1485.4662478029
 10
987.4964433765
 20
-1477.954050242
 10
983.7523643848
 20
-1470.1930247538
 10
980.2373760888
 20
-1462.1886258602
 10
976.9539488556
 20
-1453.9464791289
 10
973.9043903091
 20
-1445.4723772185
 10
971.0908437077
 20
-1436.7722758083
 10
968.5152864388
 20
-1427.8522894118
 10
966.1795286284
 20
-1418.71868708
 10
964.0852118691
 20
-1409.3778879953
 10
962.2338080668
 20
-1399.8364569596
 10
960.6266184054
 20
-1390.1010997812
 10
959.2647724331
 20
-1380.1786585612
 10
958.1492272683
 20
-1370.0761068854
 10
957.2807669265
 20
-1359.8005449229
 10
956.6600017699
 20
-1349.3591944359
 10
956.2873680782
 20
-1338.7593937044
 10
956.1631277419
 20
-1328.0085923689
  0
LWPOLYLINE
  5
BA
330
1F
100
AcDbEntity
  8
0
  6
Continuous
 62
     7
370
    25
100
AcDbPolyline
 90
      223
 70
   128
 43
0.0
 10
998.0945598663
 20
-1303.8020918534
 10
998.2193622424
 20
-1293.5467140304
 10
998.5936694059
 20
-1283.1554568626
 10
999.217181542
 20
-1272.6366435992
 10
1000.0893992265
 20
-1261.9986996598
 10
1001.2096238253
 20
-1251.250145886
 10
1002.5769580545
 20
-1240.3995917163
 10
1004.1903066988
 20
-1229.4557282903
 10
1006.0483774891
 20
-1218.4273214867
 10
1008.1496821369
 20
-1207.3232049023
 10
1010.4925375272
 20
-1196.1522727765
 10
1013.0750670661
 20
-1184.9234728668
 10
1015.8952021844
 20
-1173.6457992821
 10
1018.9506839939
 20
-1162.3282852784
 10
1022.2390650972
 20
-1150.9799960233
 10
1025.7577115477
 20
-1139.6100213349
 10
1029.50380496
 20
-1128.227468401
 10
1033.4743447663
 20
-1116.8414544846
 10
1037.6661506209
 20
-1105.4610996207
 10
1042.0758649469
 20
-1094.0955193114
 10
1046.699955626
 20
-1082.7538172249
 10
1051.5347188274
 20
-1071.445077903
 10
1056.5762819745
 20
-1060.1783594849
 10
1061.8206068471
 20
-1048.9626864517
 10
1067.2634928156
 20
-1037.8070423978
 10
1072.9005802058
 20
-1026.7203628352
 10
1078.727353791
 20
-1015.7115280365
 10
1084.7391464085
 20
-1004.7893559216
 10
1090.931142698
 20
-993.9625949949
 10
1097.2983829585
 20
-983.2399173377
 10
1103.8357671214
 20
-972.6299116622
 10
1110.538058835
 20
-962.1410764319
 10
1117.399889659
 20
-951.7818130545
 10
1124.4157633646
 20
-941.5604191524
 10
1131.5800603369
 20
-931.4850819167
 10
1138.887042076
 20
-921.563871549
 10
1146.3308557935
 20
-911.8047347976
 10
1153.9055391007
 20
-902.2154885922
 10
1161.605024784
 20
-892.8038137823
 10
1169.423145665
 20
-883.5772489856
 10
1177.3536395403
 20
-874.543184549
 10
1185.390154197
 20
-865.7088566296
 10
1193.5262525014
 20
-857.0813413983
 10
1201.7554175546
 20
-848.6675493719
 10
1210.0710579126
 20
-840.474219878
 10
1218.4665128657
 20
-832.5079156571
 10
1226.9350577741
 20
-824.7750176052
 10
1235.4699094538
 20
-817.2817196637
 10
1244.0642316103
 20
-810.0340238576
 10
1252.7111403138
 20
-803.0377354879
 10
1261.4037095134
 20
-796.2984584821
 10
1270.1349765852
 20
-789.8215909051
 10
1278.8979479084
 20
-783.6123206357
 10
1287.6856044677
 20
-777.6756212108
 10
1296.4909074754
 20
-772.0162478423
 10
1305.3068040091
 20
-766.6387336077
 10
1314.1262326612
 20
-761.5473858192
 10
1322.9421291949
 20
-756.746282574
 10
1331.7474322026
 20
-752.2392694874
 10
1340.535088762
 20
-748.0299566128
 10
1349.2980600851
 20
-744.1217155498
 10
1358.0293271569
 20
-740.5176767439
 10
1366.7218963566
 20
-737.2207269788
 10
1375.36880506
 20
-734.2335070644
 10
1383.9631272165
 20
-731.5584097213
 10
1392.4979788963
 20
-729.1975776644
 10
1400.9665238047
 20
-727.1529018865
 10
1409.3619787578
 20
-725.4260201439
 10
1417.6776191157
 20
-724.0183156442
 10
1425.9067841689
 20
-722.9309159387
 10
1434.0428824733
 20
-722.1646920191
 10
1442.0793971301
 20
-721.7202576199
 10
1450.0098910053
 20
-721.5979687266
 10
1457.8280118863
 20
-721.7979232909
 10
1465.5274975696
 20
-722.319961152
 10
1473.1021808768
 20
-723.1636641652
 10
1480.5459945943
 20
-724.3283565362
 10
1487.8529763334
 20
-725.813105363
 10
1495.0172733057
 20
-727.6167213831
 10
1502.0331470113
 20
-729.7377599256
 10
1508.8949778353
 20
-732.1745220688
 10
1515.5972695489
 20
-734.925056001
 10
1522.1346537118
 20
-737.9871585836
 10
1528.5018939724
 20
-741.3583771161
 10
1534.6938902618
 20
-745.0360113005
 10
1540.7056828793
 20
-749.017115404
 10
1546.5324564645
 20
-753.2985006191
 10
1552.1695438547
 20
-757.876737617
 10
1557.6124298232
 20
-762.7481592951
 10
1562.8567546958
 20
-767.9088637141
 10
1567.8983178429
 20
-773.3547172231
 10
1572.7330810443
 20
-779.081357771
 10
1577.3571717234
 20
-785.0841984003
 10
1581.7668860495
 20
-791.358430921
 10
1585.9586919041
 20
-797.8990297624
 10
1589.9292317104
 20
-804.7007559977
 10
1593.6753251226
 20
-811.7581615412
 10
1597.1939715732
 20
-819.0655935114
 10
1600.4823526764
 20
-826.6171987594
 10
1603.5378344859
 20
-834.4069285568
 10
1606.3579696042
 20
-842.4285434411
 10
1608.9404991432
 20
-850.6756182129
 10
1611.2833545335
 20
-859.1415470827
 10
1613.3846591813
 20
-867.819548962
 10
1615.2427299715
 20
-876.7026728949
 10
1616.8560786158
 20
-885.7838036256
 10
1618.223412845
 20
-895.0556672975
 10
1619.3436374438
 20
-904.51083728
 10
1620.2158551283
 20
-914.1417401164
 10
1620.8393672644
 20
-923.9406615908
 10
1621.2136744279
 20
-933.8997529065
 10
1621.3384768041
 20
-944.0110369731
 10
1621.2136744279
 20
-954.2664147961
 10
1620.8393672644
 20
-964.6576719639
 10
1620.2158551283
 20
-975.1764852273
 10
1619.3436374438
 20
-985.8144291667
 10
1618.223412845
 20
-996.5629829406
 10
1616.8560786158
 20
-1007.4135371102
 10
1615.2427299715
 20
-1018.3574005362
 10
1613.3846591813
 20
-1029.3858073398
 10
1611.2833545335
 20
-1040.4899239242
 10
1608.9404991432
 20
-1051.66085605
 10
1606.3579696042
 20
-1062.8896559597
 10
1603.5378344859
 20
-1074.1673295444
 10
1600.4823526764
 20
-1085.4848435481
 10
1597.1939715732
 20
-1096.8331328032
 10
1593.6753251226
 20
-1108.2031074916
 10
1589.9292317104
 20
-1119.5856604255
 10
1585.9586919041
 20
-1130.9716743419
 10
1581.7668860495
 20
-1142.3520292058
 10
1577.3571717234
 20
-1153.7176095151
 10
1572.7330810443
 20
-1165.0593116016
 10
1567.8983178429
 20
-1176.3680509235
 10
1562.8567546958
 20
-1187.6347693416
 10
1557.6124298232
 20
-1198.8504423748
 10
1552.1695438547
 20
-1210.0060864287
 10
1546.5324564645
 20
-1221.0927659913
 10
1540.7056828793
 20
-1232.10160079
 10
1534.6938902618
 20
-1243.0237729049
 10
1528.5018939724
 20
-1253.8505338316
 10
1522.1346537118
 20
-1264.5732114888
 10
1515.5972695489
 20
-1275.1832171643
 10
1508.8949778353
 20
-1285.6720523946
 10
1502.0331470113
 20
-1296.031315772
 10
1495.0172733057
 20
-1306.2527096741
 10
1487.8529763334
 20
-1316.3280469098
 10
1480.5459945943
 20
-1326.2492572775
 10
1473.1021808768
 20
-1336.0083940289
 10
1465.5274975696
 20
-1345.5976402343
 10
1457.8280118863
 20
-1355.0093150442
 10
1450.0098910053
 20
-1364.235879841
 10
1442.0793971301
 20
-1373.2699442775
 10
1434.0428824733
 20
-1382.1042721969
 10
1425.9067841689
 20
-1390.7317874282
 10
1417.6776191157
 20
-1399.1455794546
 10
1409.3619787578
 20
-1407.3389089485
 10
1400.9665238047
 20
-1415.3052131694
 10
1392.4979788963
 20
-1423.0381112213
 10
1383.9631272165
 20
-1430.5314091628
 10
1375.36880506
 20
-1437.7791049689
 10
1366.7218963566
 20
-1444.7753933386
 10
1358.0293271569
 20
-1451.5146703444
 10
1349.2980600851
 20
-1457.9915379214
 10
1340.535088762
 20
-1464.2008081908
 10
1331.7474322026
 20
-1470.1375076157
 10
1322.9421291949
 20
-1475.7968809842
 10
1314.1262326612
 20
-1481.1743952188
 10
1305.3068040091
 20
-1486.2657430073
 10
1296.4909074754
 20
-1491.0668462525
 10
1287.6856044677
 20
-1495.5738593391
 10
1278.8979479084
 20
-1499.7831722137
 10
1270.1349765852
 20
-1503.6914132767
 10
1261.4037095134
 20
-1507.2954520826
 10
1252.7111403138
 20
-1510.5924018477
 10
1244.0642316103
 20
-1513.5796217621
 10
1235.4699094538
 20
-1516.2547191052
 10
1226.9350577741
 20
-1518.6155511621
 10
1218.4665128657
 20
-1520.66022694
 10
1210.0710579126
 20
-1522.3871086826
 10
1201.7554175546
 20
-1523.7948131823
 10
1193.5262525014
 20
-1524.8822128878
 10
1185.390154197
 20
-1525.6484368074
 10
1177.3536395403
 20
-1526.0928712066
 10
1169.423145665
 20
-1526.2151601
 10
1161.605024784
 20
-1526.0152055356
 10
1153.9055391007
 20
-1525.4931676745
 10
1146.3308557935
 20
-1524.6494646613
 10
1138.887042076
 20
-1523.4847722903
 10
1131.5800603369
 20
-1522.0000234635
 10
1124.4157633646
 20
-1520.1964074434
 10
1117.399889659
 20
-1518.0753689009
 10
1110.538058835
 20
-1515.6386067577
 10
1103.8357671214
 20
-1512.8880728255
 10
1097.2983829585
 20
-1509.8259702429
 10
1090.931142698
 20
-1506.4547517104
 10
1084.7391464085
 20
-1502.777117526
 10
1078.727353791
 20
-1498.7960134225
 10
1072.9005802058
 20
-1494.5146282075
 10
1067.2634928156
 20
-1489.9363912095
 10
1061.8206068471
 20
-1485.0649695314
 10
1056.5762819745
 20
-1479.9042651124
 10
1051.5347188274
 20
-1474.4584116034
 10
1046.699955626
 20
-1468.7317710555
 10
1042.0758649469
 20
-1462.7289304262
 10
1037.6661506209
 20
-1456.4546979055
 10
1033.4743447663
 20
-1449.9140990641
 10
1029.5038049599
 20
-1443.1123728288
 10
1025.7577115477
 20
-1436.0549672853
 10
1022.2390650972
 20
-1428.7475353151
 10
1018.9506839939
 20
-1421.1959300671
 10
1015.8952021844
 20
-1413.4062002697
 10
1013.0750670661
 20
-1405.3845853854
 10
1010.4925375272
 20
-1397.1375106136
 10
1008.1496821369
 20
-1388.6715817438
 10
1006.048377489
 20
-1379.9935798645
 10
1004.1903066988
 20
-1371.1104559316
 10
1002.5769580545
 20
-1362.0293252009
 10
1001.2096238253
 20
-1352.757461529
 10
1000.0893992265
 20
-1343.3022915465
 10
999.217181542
 20
-1333.6713887101
 10
998.5936694059
 20
-1323.8724672357
 10
998.2193622424
 20
-1313.91337592
 10
998.0945598663
 20
-1303.8020918534
  0
LWPOLYLINE
  5
BB
330
1F
100
AcDbEntity
  8
0
  6
Continuous
 62
     7
370
    25
100
AcDbPolyline
 90
      121
 70
   128
 43
0.0
 10
1827.6896715639
 20
-845.5914704133
 10
1828.5370932099
 20
-846.0840040535
 10
1835.054009752
 20
-850.100976984
 10
1841.3900624777
 20
-854.4191142634
 10
1847.5407983491
 20
-859.035381064
 10
1853.5018945708
 20
-863.9465330297
 10
1859.2691616279
 20
-869.1491185565
 10
1864.8385462303
 20
-874.6394812179
 10
1870.206134162
 20
-880.413762335
 10
1875.3681530311
 20
-886.4679036883
 10
1880.320974922
 20
-892.79765037
 10
1885.0611189445
 20
-899.3985537741
 10
1889.5852536804
 20
-906.2659747231
 10
1893.890199525
 20
-913.3950867285
 10
1897.9729309217
 20
-920.780879383
 10
1901.830578488
 20
-928.4181618813
 10
1905.4604310327
 20
-936.3015666691
 10
1908.859937461
 20
-944.4255532147
 10
1912.0267085677
 20
-952.7844119035
 10
1914.958518716
 20
-961.3722680503
 10
1917.6533074019
 20
-970.1830860284
 10
1920.1091807024
 20
-979.2106735117
 10
1922.3244126066
 20
-988.4486858259
 10
1924.2974462283
 20
-997.8906304085
 10
1926.026894901
 20
-1007.5298713715
 10
1927.5115431516
 20
-1017.359634165
 10
1928.7503475554
 20
-1027.3730103384
 10
1929.7424374688
 20
-1037.5629623963
 10
1930.4871156417
 20
-1047.9223287436
 10
1930.9838587072
 20
-1058.4438287197
 10
1931.2323175496
 20
-1069.1200677146
 10
1931.2323175496
 20
-1079.9435423665
 10
1930.9838587072
 20
-1090.9066458347
 10
1930.4871156417
 20
-1102.0016731463
 10
1929.7424374688
 20
-1113.2208266111
 10
1928.7503475554
 20
-1124.5562213015
 10
1927.5115431516
 20
-1135.9998905949
 10
1926.026894901
 20
-1147.5437917721
 10
1924.2974462283
 20
-1159.1798116699
 10
1922.3244126065
 20
-1170.8997723833
 10
1920.1091807024
 20
-1182.6954370129
 10
1917.6533074019
 20
-1194.5585154538
 10
1914.958518716
 20
-1206.480670222
 10
1912.0267085677
 20
-1218.4535223144
 10
1908.859937461
 20
-1230.4686570969
 10
1905.4604310327
 20
-1242.517630219
 10
1901.830578488
 20
-1254.5919735482
 10
1897.9729309217
 20
-1266.6832011217
 10
1893.890199525
 20
-1278.7828151102
 10
1889.5852536804
 20
-1290.8823117903
 10
1885.0611189445
 20
-1302.973187521
 10
1880.320974922
 20
-1315.0469447205
 10
1875.3681530311
 20
-1327.0950978377
 10
1870.206134162
 20
-1339.1091793164
 10
1864.8385462303
 20
-1351.0807455465
 10
1859.2691616278
 20
-1363.0013827976
 10
1853.5018945708
 20
-1374.8627131331
 10
1847.5407983491
 20
-1386.6564002975
 10
1841.3900624777
 20
-1398.3741555758
 10
1835.054009752
 20
-1410.0077436186
 10
1828.5370932099
 20
-1421.5489882299
 10
1821.843893002
 20
-1432.9897781138
 10
1814.979113173
 20
-1444.3220725746
 10
1807.9475783551
 20
-1455.5379071684
 10
1800.7542303776
 20
-1466.6293993006
 10
1793.4041247936
 20
-1477.5887537652
 10
1785.9024273269
 20
-1488.4082682241
 10
1778.2544102417
 20
-1499.0803386201
 10
1770.4654486367
 20
-1509.597464521
 10
1762.541016668
 20
-1519.952254391
 10
1754.4866837015
 20
-1530.1374307857
 10
1746.3081103987
 20
-1540.1458354667
 10
1738.0110447383
 20
-1549.9704344324
 10
1729.6013179768
 20
-1559.6043228614
 10
1721.0848405497
 20
-1569.0407299657
 10
1712.4675979182
 20
-1578.273023749
 10
1703.7556463619
 20
-1587.2947156678
 10
1694.955108723
 20
-1596.0994651914
 10
1686.0721701028
 20
-1604.6810842586
 10
1677.1130735145
 20
-1613.0335416262
 10
1668.0841154962
 20
-1621.1509671078
 10
1658.9916416852
 20
-1629.0276557001
 10
1649.8420423581
 20
-1636.6580715917
 10
1640.6417479401
 20
-1644.0368520539
 10
1631.3972244853
 20
-1651.15881121
 10
1622.1149691323
 20
-1658.0189436795
 10
1612.8015055381
 20
-1664.6124280964
 10
1603.4633792932
 20
-1670.9346304974
 10
1594.1071533211
 20
-1676.9811075787
 10
1584.7394032663
 20
-1682.7476098189
 10
1575.366712872
 20
-1688.2300844656
 10
1565.995669354
 20
-1693.4246783838
 10
1556.6328587704
 20
-1698.3277407635
 10
1547.2848613933
 20
-1702.9358256861
 10
1537.9582470836
 20
-1707.2456945458
 10
1528.6595706744
 20
-1711.2543183261
 10
1519.3953673634
 20
-1714.958879728
 10
1510.1721481207
 20
-1718.3567751507
 10
1500.996395112
 20
-1721.4456165212
 10
1491.8745571435
 20
-1724.2232329725
 10
1482.8130451293
 20
-1726.6876723694
 10
1473.8182275859
 20
-1728.8372026806
 10
1464.8964261564
 20
-1730.6703131957
 10
1456.0539111673
 20
-1732.1857155874
 10
1447.2968972219
 20
-1733.3823448165
 10
1438.6315388325
 20
-1734.2593598806
 10
1430.0639260952
 20
-1734.8161444052
 10
1421.6000804094
 20
-1735.0523070769
 10
1413.245950246
 20
-1734.9676819184
 10
1405.0074069668
 20
-1734.562328405
 10
1396.8902406982
 20
-1733.8365314229
 10
1388.9001562613
 20
-1732.7908010692
 10
1381.0427691634
 20
-1731.4258722931
 10
1373.3236016505
 20
-1729.7427043795
 10
1365.7480788267
 20
-1727.7424802747
 10
1358.3215248411
 20
-1725.4266057551
 10
1351.0491591464
 20
-1722.7967084394
 10
1343.9360928299
 20
-1719.8546366442
 10
1336.9873250221
 20
-1716.6024580855
 10
1330.2077393829
 20
-1713.0424584253
 10
1327.7303052459
 20
-1711.640332794
  0
LWPOLYLINE
  5
BC
330
1F
100
AcDbEntity
  8
0
  6
Continuous
 62
     7
370
    25
100
AcDbPolyline
 90
       59
 70
   128
 43
0.0
 10
1303.9993947422
 20
-1486.9959597357
 10
1303.9460128624
 20
-1480.3663773916
 10
1304.0708152386
 20
-1470.1109995686
 10
1304.4451224021
 20
-1459.7197424008
 10
1305.0686345382
 20
-1449.2009291374
 10
1305.9408522227
 20
-1438.562985198
 10
1307.0610768215
 20
-1427.8144314242
 10
1308.4284110507
 20
-1416.9638772545
 10
1310.041759695
 20
-1406.0200138285
 10
1311.8998304852
 20
-1394.9916070249
 10
1314.001135133
 20
-1383.8874904405
 10
1316.3439905233
 20
-1372.7165583147
 10
1318.9265200623
 20
-1361.487758405
 10
1321.7466551806
 20
-1350.2100848203
 10
1324.8021369901
 20
-1338.8925708166
 10
1328.0905180933
 20
-1327.5442815615
 10
1331.6091645439
 20
-1316.1743068731
 10
1335.3552579561
 20
-1304.7917539392
 10
1339.3257977625
 20
-1293.4057400228
 10
1343.5176036171
 20
-1282.0253851589
 10
1347.9273179431
 20
-1270.6598048496
 10
1352.5514086222
 20
-1259.3181027631
 10
1357.3861718236
 20
-1248.0093634412
 10
1362.4277349707
 20
-1236.7426450231
 10
1367.6720598433
 20
-1225.5269719899
 10
1373.1149458118
 20
-1214.371327936
 10
1378.752033202
 20
-1203.2846483734
 10
1384.5788067872
 20
-1192.2758135747
 10
1390.5905994047
 20
-1181.3536414598
 10
1396.7825956941
 20
-1170.5268805331
 10
1403.1498359547
 20
-1159.8042028759
 10
1409.6872201176
 20
-1149.1941972004
 10
1416.3895118312
 20
-1138.7053619701
 10
1423.2513426552
 20
-1128.3460985927
 10
1430.2672163608
 20
-1118.1247046906
 10
1437.4315133331
 20
-1108.0493674549
 10
1444.7384950722
 20
-1098.1281570872
 10
1452.1823087897
 20
-1088.3690203358
 10
1459.7569920969
 20
-1078.7797741304
 10
1467.4564777802
 20
-1069.3680993205
 10
1475.2745986612
 20
-1060.1415345238
 10
1483.2050925364
 20
-1051.1074700872
 10
1491.2416071932
 20
-1042.2731421678
 10
1499.3777054976
 20
-1033.6456269365
 10
1507.6068705508
 20
-1025.2318349101
 10
1515.9225109087
 20
-1017.0385054162
 10
1524.3179658618
 20
-1009.0722011953
 10
1532.7865107702
 20
-1001.3393031434
 10
1541.32136245
 20
-993.8460052019
 10
1549.9156846065
 20
-986.5983093958
 10
1558.5625933099
 20
-979.6020210261
 10
1567.2551625096
 20
-972.8627440203
 10
1575.9864295814
 20
-966.3858764433
 10
1584.7494009045
 20
-960.1766061739
 10
1593.5370574639
 20
-954.239906749
 10
1602.3423604716
 20
-948.5805333805
 10
1611.1582570053
 20
-943.2030191459
 10
1619.9776856574
 20
-938.1116713574
 10
1621.2850949243
 20
-937.381454629
  0
LWPOLYLINE
  5
BD
330
1F
100
AcDbEntity
  8
0
  6
Continuous
 62
     7
370
    25
100
AcDbPolyline
 90
      134
 70
   128
 43
0.0
 10
1875.7873769422
 20
-851.9560070784
 10
1875.8171970121
 20
-851.963808283
 10
1883.6042053318
 20
-854.183220798
 10
1891.2363306054
 20
-856.7251314532
 10
1898.7083421553
 20
-859.58779815
 10
1906.0151190383
 20
-862.7692589597
 10
1913.1516535542
 20
-866.267333468
 10
1920.1130546789
 20
-870.0796242692
 10
1926.8945514158
 20
-874.2035186097
 10
1933.4914960658
 20
-878.6361901784
 10
1939.8993674125
 20
-883.3746010435
 10
1946.1137738209
 20
-888.415503735
 10
1952.1304562473
 20
-893.7554434699
 10
1957.9452911582
 20
-899.3907605203
 10
1963.5542933562
 20
-905.3175927213
 10
1968.9536187112
 20
-911.5318781182
 10
1974.1395667955
 20
-918.0293577502
 10
1979.1085834192
 20
-924.8055785694
 10
1983.8572630666
 20
-931.8558964924
 10
1988.3823512298
 20
-939.1754795836
 10
1992.6807466395
 20
-946.7593113663
 10
1996.7495033901
 20
-954.6021942609
 10
2000.585832959
 20
-962.6987531475
 10
2004.1871061175
 20
-971.0434390488
 10
2007.550854733
 20
-979.630532934
 10
2010.67477346
 20
-988.454149638
 10
2013.5567213209
 20
-997.5082418945
 10
2016.1947231724
 20
-1006.786604481
 10
2018.5869710598
 20
-1016.2828784713
 10
2020.7318254561
 20
-1025.9905555934
 10
2022.627816385
 20
-1035.9029826905
 10
2024.2736444291
 20
-1046.0133662801
 10
2025.6681816202
 20
-1056.3147772103
 10
2026.810472212
 20
-1066.8001554087
 10
2027.6997333356
 20
-1077.4623147207
 10
2028.335355536
 20
-1088.2939478351
 10
2028.7169031893
 20
-1099.2876312914
 10
2028.8441148019
 20
-1110.4358305682
 10
2028.7169031893
 20
-1121.7309052466
 10
2028.335355536
 20
-1133.1651142466
 10
2027.6997333356
 20
-1144.7306211324
 10
2026.810472212
 20
-1156.4194994835
 10
2025.6681816202
 20
-1168.2237383264
 10
2024.2736444291
 20
-1180.1352476255
 10
2022.627816385
 20
-1192.1458638273
 10
2020.7318254561
 20
-1204.2473554554
 10
2018.5869710598
 20
-1216.4314287518
 10
2016.1947231724
 20
-1228.6897333615
 10
2013.5567213209
 20
-1241.0138680547
 10
2010.67477346
 20
-1253.3953864851
 10
2007.550854733
 20
-1265.8258029784
 10
2004.1871061175
 20
-1278.2965983481
 10
2000.585832959
 20
-1290.799225734
 10
1996.7495033901
 20
-1303.3251164598
 10
1992.6807466395
 20
-1315.8656859056
 10
1988.3823512298
 20
-1328.4123393916
 10
1983.8572630666
 20
-1340.9564780683
 10
1979.1085834192
 20
-1353.4895048094
 10
1974.1395667955
 20
-1366.0028301047
 10
1968.9536187112
 20
-1378.4878779458
 10
1963.5542933562
 20
-1390.9360917048
 10
1957.9452911582
 20
-1403.3389399977
 10
1952.1304562473
 20
-1415.6879225318
 10
1946.1137738209
 20
-1427.9745759313
 10
1939.8993674125
 20
-1440.1904795378
 10
1933.4914960658
 20
-1452.327261181
 10
1926.8945514158
 20
-1464.3766029171
 10
1920.1130546789
 20
-1476.3302467292
 10
1913.1516535542
 20
-1488.1800001868
 10
1906.0151190382
 20
-1499.9177420609
 10
1898.7083421553
 20
-1511.5354278895
 10
1891.2363306054
 20
-1523.0250954911
 10
1883.6042053318
 20
-1534.3788704214
 10
1875.8171970121
 20
-1545.5889713701
 10
1867.8806424728
 20
-1556.6477154941
 10
1859.7999810319
 20
-1567.5475236825
 10
1851.5807507712
 20
-1578.2809257513
 10
1843.2285847404
 20
-1588.8405655628
 10
1834.7492070971
 20
-1599.2192060674
 10
1826.148429183
 20
-1609.4097342633
 10
1817.4321455418
 20
-1619.4051660714
 10
1808.6063298788
 20
-1629.1986511222
 10
1799.6770309673
 20
-1638.7834774501
 10
1790.6503685027
 20
-1648.153076094
 10
1781.5325289086
 20
-1657.3010255989
 10
1772.3297610968
 20
-1666.2210564173
 10
1763.0483721846
 20
-1674.9070552055
 10
1753.6947231724
 20
-1683.3530690139
 10
1744.275224584
 20
-1691.5533093666
 10
1734.7963320732
 20
-1699.5021562283
 10
1725.2645419995
 20
-1707.1941618565
 10
1715.6863869756
 20
-1714.6240545347
 10
1706.0684313906
 20
-1721.7867421857
 10
1696.4172669108
 20
-1728.6773158612
 10
1686.7395079623
 20
-1735.291053106
 10
1677.0417871976
 20
-1741.6234211951
 10
1667.3307509501
 20
-1747.6700802397
 10
1657.6130546789
 20
-1753.4268861617
 10
1647.8953584078
 20
-1758.8898935338
 10
1638.1843221603
 20
-1764.0553582839
 10
1628.4866013956
 20
-1768.9197402602
 10
1618.8088424471
 20
-1773.4797056584
 10
1609.1576779673
 20
-1777.732129306
 10
1599.5397223823
 20
-1781.6740968042
 10
1589.9615673584
 20
-1785.3029065254
 10
1580.4297772847
 20
-1788.6160714646
 10
1570.9508847739
 20
-1791.6113209442
 10
1561.5313861855
 20
-1794.2866021698
 10
1552.1777371733
 20
-1796.6400816372
 10
1542.8963482611
 20
-1798.6701463891
 10
1533.6935804493
 20
-1800.3754051207
 10
1524.5757408552
 20
-1801.7546891326
 10
1515.5490783906
 20
-1802.8070531327
 10
1506.6197794791
 20
-1803.531775883
 10
1497.7939638161
 20
-1803.928360695
 10
1489.0776801749
 20
-1803.9965357691
 10
1480.4769022608
 20
-1803.7362543816
 10
1471.9975246175
 20
-1803.1476949163
 10
1463.6453585867
 20
-1802.2312607425
 10
1455.426128326
 20
-1800.9875799383
 10
1447.3454668851
 20
-1799.4175048606
 10
1439.4089123458
 20
-1797.5221115603
 10
1431.6219040261
 20
-1795.3026990453
 10
1423.9897787525
 20
-1792.7607883901
 10
1416.5177672026
 20
-1789.8981216932
 10
1409.2109903196
 20
-1786.7166608835
 10
1402.0744558037
 20
-1783.2185863753
 10
1395.1130546789
 20
-1779.4062955741
 10
1388.331557942
 20
-1775.2824012335
 10
1381.7346132921
 20
-1770.8497296649
 10
1375.3267419454
 20
-1766.1113187997
 10
1369.112335537
 20
-1761.0704161083
 10
1363.0956531106
 20
-1755.7304763734
 10
1357.2946183426
 20
-1750.1091250903
  0
LWPOLYLINE
  5
BE
330
1F
100
AcDbEntity
  8
0
  6
Continuous
 62
     7
370
    25
100
AcDbPolyline
 90
      122
 70
   128
 43
0.0
 10
1981.5524031289
 20
-869.7530560722
 10
1981.5749954561
 20
-869.7661004649
 10
1988.7569234289
 20
-874.1335009475
 10
1995.7434019534
 20
-878.8279112183
 10
2002.5296428462
 20
-883.8461139631
 10
2009.1109951569
 20
-889.1846699563
 10
2015.4829483552
 20
-894.8399204184
 10
2021.6411354227
 20
-900.8079895232
 10
2027.5813358457
 20
-907.0847870542
 10
2033.2994785074
 20
-913.6660112079
 10
2038.7916444786
 20
-920.547151542
 10
2044.0540697029
 20
-927.7234920667
 10
2049.0831475771
 20
-935.1901144766
 10
2053.8754314224
 20
-942.9419015217
 10
2058.4276368467
 20
-950.9735405144
 10
2062.7366439959
 20
-959.2795269705
 10
2066.7994996917
 20
-967.8541683817
 10
2070.6134194558
 20
-976.6915881172
 10
2074.175789418
 20
-985.7857294509
 10
2077.484168108
 20
-995.1303597126
 10
2080.5362881283
 20
-1004.7190745595
 10
2083.3300577081
 20
-1014.5453023654
 10
2085.8635621375
 20
-1024.6023087246
 10
2088.1350650791
 20
-1034.8832010674
 10
2090.1430097581
 20
-1045.3809333835
 10
2091.8860200296
 20
-1056.0883110517
 10
2093.3629013215
 20
-1066.9979957702
 10
2094.572641453
 20
-1078.102510586
 10
2095.5144113287
 20
-1089.3942450193
 10
2096.1875655066
 20
-1100.8654602794
 10
2096.5916426404
 20
-1112.5082945684
 10
2096.7263657958
 20
-1124.3147684692
 10
2096.5916426404
 20
-1136.2767904143
 10
2096.1875655066
 20
-1148.3861622314
 10
2095.5144113287
 20
-1160.634584762
 10
2094.572641453
 20
-1173.013663549
 10
2093.3629013215
 20
-1185.5149145903
 10
2091.8860200296
 20
-1198.1297701527
 10
2090.1430097581
 20
-1210.8495846445
 10
2088.1350650791
 20
-1223.6656405402
 10
2085.8635621375
 20
-1236.5691543551
 10
2083.3300577081
 20
-1249.5512826655
 10
2080.5362881283
 20
-1262.6031281692
 10
2077.484168108
 20
-1275.715745783
 10
2074.175789418
 20
-1288.8801487741
 10
2070.6134194558
 20
-1302.087314918
 10
2066.7994996917
 20
-1315.3281926829
 10
2062.7366439959
 20
-1328.5937074325
 10
2058.4276368467
 20
-1341.8747676456
 10
2053.8754314224
 20
-1355.162271147
 10
2049.0831475771
 20
-1368.4471113454
 10
2044.0540697029
 20
-1381.7201834751
 10
2038.7916444786
 20
-1394.9723908354
 10
2033.2994785074
 20
-1408.1946510253
 10
2027.5813358457
 20
-1421.3779021682
 10
2021.6411354227
 20
-1434.5131091221
 10
2015.4829483552
 20
-1447.5912696725
 10
2009.1109951569
 20
-1460.6034207014
 10
2002.5296428462
 20
-1473.5406443303
 10
1995.7434019534
 20
-1486.3940740324
 10
1988.7569234289
 20
-1499.1549007092
 10
1981.5749954561
 20
-1511.8143787273
 10
1974.2025401697
 20
-1524.3638319129
 10
1966.6446102823
 20
-1536.7946594977
 10
1958.9063856215
 20
-1549.0983420133
 10
1950.99316958
 20
-1561.2664471304
 10
1942.9103854808
 20
-1573.2906354375
 10
1934.6635728603
 20
-1585.1626661565
 10
1926.258383672
 20
-1596.8744027907
 10
1917.7005784127
 20
-1608.4178187007
 10
1908.9960221747
 20
-1619.785002606
 10
1900.1506806259
 20
-1630.9681640063
 10
1891.1706159217
 20
-1641.9596385217
 10
1882.0619825499
 20
-1652.7518931443
 10
1872.8310231127
 20
-1663.3375314021
 10
1863.4840640487
 20
-1673.7092984273
 10
1854.0275112967
 20
-1683.8600859289
 10
1844.4678459056
 20
-1693.7829370641
 10
1834.8116195926
 20
-1703.4710512065
 10
1825.0654502528
 20
-1712.9177886065
 10
1815.2360174239
 20
-1722.1166749422
 10
1805.3300577081
 20
-1731.0614057565
 10
1795.3543601555
 20
-1739.7458507776
 10
1785.3157616107
 20
-1748.1640581206
 10
1775.2211420279
 20
-1756.3102583669
 10
1765.077419755
 20
-1764.1788685176
 10
1754.8915467926
 20
-1771.7644958203
 10
1744.6705040293
 20
-1779.0619414652
 10
1734.4212964571
 20
-1786.0662041473
 10
1724.150948371
 20
-1792.772483495
 10
1713.8664985546
 20
-1799.1761833593
 10
1703.5749954561
 20
-1805.2729149644
 10
1693.2834923575
 20
-1811.0584999147
 10
1682.9990425411
 20
-1816.5289730595
 10
1672.7286944551
 20
-1821.6805852097
 10
1662.4794868829
 20
-1826.5098057076
 10
1652.2584441195
 20
-1831.0133248467
 10
1642.0725711571
 20
-1835.18805614
 10
1631.9288488843
 20
-1839.0311384352
 10
1621.8342293014
 20
-1842.5399378757
 10
1611.7956307567
 20
-1845.7120497055
 10
1601.819933204
 20
-1848.5452999177
 10
1591.9139734882
 20
-1851.0377467441
 10
1582.0845406593
 20
-1853.1876819862
 10
1572.3383713195
 20
-1854.9936321857
 10
1562.6821450065
 20
-1856.4543596346
 10
1553.1224796154
 20
-1857.5688632232
 10
1543.6659268634
 20
-1858.3363791264
 10
1534.3189677994
 20
-1858.7563813273
 10
1525.0880083623
 20
-1858.8285819772
 10
1515.9793749904
 20
-1858.5529315935
 10
1506.9993102862
 20
-1857.9296190931
 10
1498.1539687375
 20
-1856.9590716633
 10
1489.4494124994
 20
-1855.6419544688
 10
1480.8916072401
 20
-1853.979170196
 10
1472.4864180518
 20
-1851.9718584341
 10
1464.2396054313
 20
-1849.6213948944
 10
1456.1568213321
 20
-1846.9293904672
 10
1448.2436052906
 20
-1843.8976901178
 10
1440.5053806298
 20
-1840.5283716222
 10
1432.9474507425
 20
-1836.823744143
 10
1425.5975877832
 20
-1832.7993910395
  0
LWPOLYLINE
  5
BF
330
1F
100
AcDbEntity
  8
0
  6
Continuous
 62
     7
370
    25
100
AcDbPolyline
 90
      157
 70
   128
 43
0.0
 10
1785.9933841564
 20
-821.5207160534
 10
1788.8496788155
 20
-821.0255512918
 10
1798.5059051285
 20
-819.5648238429
 10
1808.0655705196
 20
-818.4503202543
 10
1817.5221232716
 20
-817.6828043511
 10
1826.8690823356
 20
-817.2628021502
 10
1836.1000417728
 20
-817.1906015003
 10
1845.2086751446
 20
-817.4662518841
 10
1854.1887398488
 20
-818.0895643845
 10
1863.0340813976
 20
-819.0601118142
 10
1871.7386376356
 20
-820.3772290087
 10
1880.2964428949
 20
-822.0400132815
 10
1888.7016320832
 20
-824.0473250434
 10
1896.9484447037
 20
-826.3977885831
 10
1905.0312288029
 20
-829.0897930103
 10
1912.9444448444
 20
-832.1214933597
 10
1920.6826695052
 20
-835.4908118553
 10
1928.2405993926
 20
-839.1954393345
 10
1935.6130546789
 20
-843.2328368307
 10
1942.7949826517
 20
-847.6002373132
 10
1949.7814611763
 20
-852.2946475841
 10
1956.5677020691
 20
-857.3128503288
 10
1963.1490543797
 20
-862.6514063221
 10
1969.521007578
 20
-868.3066567842
 10
1975.6791946456
 20
-874.2747258889
 10
1981.6193950685
 20
-880.5515234199
 10
1987.3375377303
 20
-887.1327475736
 10
1992.8297037014
 20
-894.0138879077
 10
1998.0921289258
 20
-901.1902284324
 10
2003.1212068
 20
-908.6568508423
 10
2007.9134906452
 20
-916.4086378875
 10
2012.4656960696
 20
-924.4402768801
 10
2016.7747032188
 20
-932.7462633362
 10
2020.8375589146
 20
-941.3209047475
 10
2024.6514786787
 20
-950.158324483
 10
2028.2138486409
 20
-959.2524658167
 10
2031.5222273309
 20
-968.5970960784
 10
2034.5743473511
 20
-978.1858109253
 10
2037.368116931
 20
-988.0120387312
 10
2039.9016213604
 20
-998.0690450904
 10
2042.173124302
 20
-1008.3499374331
 10
2044.181068981
 20
-1018.8476697493
 10
2045.9240792525
 20
-1029.5550474175
 10
2047.4009605443
 20
-1040.4647321359
 10
2048.6107006758
 20
-1051.5692469517
 10
2049.5524705515
 20
-1062.8609813851
 10
2050.2256247294
 20
-1074.3321966452
 10
2050.6297018632
 20
-1085.9750309342
 10
2050.7644250187
 20
-1097.7815048349
 10
2050.6297018632
 20
-1109.74352678
 10
2050.2256247294
 20
-1121.8528985972
 10
2049.5524705515
 20
-1134.1013211277
 10
2048.6107006758
 20
-1146.4803999148
 10
2047.4009605443
 20
-1158.981650956
 10
2045.9240792525
 20
-1171.5965065185
 10
2044.181068981
 20
-1184.3163210103
 10
2042.173124302
 20
-1197.1323769059
 10
2039.9016213604
 20
-1210.0358907209
 10
2037.368116931
 20
-1223.0180190313
 10
2034.5743473511
 20
-1236.0698645349
 10
2031.5222273309
 20
-1249.1824821488
 10
2028.2138486409
 20
-1262.3468851398
 10
2024.6514786787
 20
-1275.5540512838
 10
2020.8375589146
 20
-1288.7949290486
 10
2016.7747032188
 20
-1302.0604437982
 10
2012.4656960696
 20
-1315.3415040113
 10
2007.9134906452
 20
-1328.6290075127
 10
2003.1212068
 20
-1341.9138477112
 10
1998.0921289258
 20
-1355.1869198409
 10
1992.8297037014
 20
-1368.4391272012
 10
1987.3375377303
 20
-1381.6613873911
 10
1981.6193950685
 20
-1394.8446385339
 10
1975.6791946456
 20
-1407.9798454879
 10
1969.521007578
 20
-1421.0580060383
 10
1963.1490543797
 20
-1434.0701570671
 10
1956.5677020691
 20
-1447.007380696
 10
1949.7814611763
 20
-1459.8608103982
 10
1942.7949826517
 20
-1472.6216370749
 10
1935.6130546789
 20
-1485.2811150931
 10
1928.2405993926
 20
-1497.8305682787
 10
1920.6826695052
 20
-1510.2613958634
 10
1912.9444448444
 20
-1522.5650783791
 10
1905.0312288029
 20
-1534.7331834962
 10
1896.9484447037
 20
-1546.7573718032
 10
1888.7016320832
 20
-1558.6294025223
 10
1880.2964428949
 20
-1570.3411391565
 10
1871.7386376356
 20
-1581.8845550665
 10
1863.0340813976
 20
-1593.2517389717
 10
1854.1887398488
 20
-1604.4349003721
 10
1845.2086751446
 20
-1615.4263748874
 10
1836.1000417728
 20
-1626.2186295101
 10
1826.8690823356
 20
-1636.8042677679
 10
1817.5221232716
 20
-1647.1760347931
 10
1808.0655705196
 20
-1657.3268222946
 10
1798.5059051285
 20
-1667.2496734298
 10
1788.8496788155
 20
-1676.9377875722
 10
1779.1035094757
 20
-1686.3845249723
 10
1769.2740766468
 20
-1695.583411308
 10
1759.368116931
 20
-1704.5281421223
 10
1749.3924193783
 20
-1713.2125871433
 10
1739.3538208336
 20
-1721.6307944864
 10
1729.2592012508
 20
-1729.7769947326
 10
1719.1154789779
 20
-1737.6456048833
 10
1708.9296060155
 20
-1745.2312321861
 10
1698.7085632521
 20
-1752.5286778309
 10
1688.45935568
 20
-1759.5329405131
 10
1678.1890075939
 20
-1766.2392198607
 10
1667.9045577775
 20
-1772.6429197251
 10
1657.6130546789
 20
-1778.7396513301
 10
1647.3215515804
 20
-1784.5252362805
 10
1637.037101764
 20
-1789.9957094253
 10
1626.7667536779
 20
-1795.1473215754
 10
1616.5175461058
 20
-1799.9765420733
 10
1606.2965033424
 20
-1804.4800612125
 10
1596.11063038
 20
-1808.6547925058
 10
1585.9669081071
 20
-1812.497874801
 10
1575.8722885243
 20
-1816.0066742415
 10
1565.8336899795
 20
-1819.1787860713
 10
1555.8579924269
 20
-1822.0120362835
 10
1545.9520327111
 20
-1824.5044831099
 10
1536.1225998822
 20
-1826.654418352
 10
1526.3764305424
 20
-1828.4603685515
 10
1516.7202042294
 20
-1829.9210960003
 10
1507.1605388383
 20
-1831.0355995889
 10
1497.7039860863
 20
-1831.8031154922
 10
1488.3570270223
 20
-1832.223117693
 10
1479.1260675851
 20
-1832.295318343
 10
1470.0174342133
 20
-1832.0196679592
 10
1461.0373695091
 20
-1831.3963554588
 10
1452.1920279603
 20
-1830.425808029
 10
1443.4874717223
 20
-1829.1086908346
 10
1434.929666463
 20
-1827.4459065618
 10
1426.5244772747
 20
-1825.4385947999
 10
1418.2776646542
 20
-1823.0881312602
 10
1410.194880555
 20
-1820.396126833
 10
1402.2816645135
 20
-1817.3644264836
 10
1394.5434398527
 20
-1813.995107988
 10
1386.9855099653
 20
-1810.2904805088
 10
1379.6130546789
 20
-1806.2530830126
 10
1372.4311267062
 20
-1801.88568253
 10
1365.4446481816
 20
-1797.1912722592
 10
1358.6584072888
 20
-1792.1730695144
 10
1352.0770549782
 20
-1786.8345135212
 10
1345.7051017799
 20
-1781.1792630591
 10
1339.5469147123
 20
-1775.2111939543
 10
1333.6067142894
 20
-1768.9343964234
 10
1327.8885716276
 20
-1762.3531722697
 10
1322.3964056565
 20
-1755.4720319355
 10
1317.1339804321
 20
-1748.2956914108
 10
1312.1049025579
 20
-1740.8290690009
 10
1307.3126187127
 20
-1733.0772819558
 10
1302.7604132883
 20
-1725.0456429631
 10
1298.4514061391
 20
-1716.7396565071
 10
1294.3885504433
 20
-1708.1650150958
 10
1290.5746306792
 20
-1699.3275953603
 10
1287.012260717
 20
-1690.2334540266
 10
1286.0340178384
 20
-1687.5695784341
  0
LWPOLYLINE
  5
C0
330
1F
100
AcDbEntity
  8
0
  6
Continuous
 62
     7
370
    25
100
AcDbPolyline
 90
       41
 70
   128
 43
0.0
 10
1371.4730311407
 20
-1440.9676097691
 10
1372.2353616903
 20
-1437.2742764886
 10
1374.8025434779
 20
-1425.5576783635
 10
1377.6067520086
 20
-1413.7875274203
 10
1380.6459656032
 20
-1401.9723092866
 10
1383.9179931568
 20
-1390.1205420807
 10
1387.4204757187
 20
-1378.2407702708
 10
1391.1508881927
 20
-1366.341558515
 10
1395.106541158
 20
-1354.4314854865
 10
1399.2845828077
 20
-1342.5191376887
 10
1403.6820010049
 20
-1330.6131032652
 10
1408.2956254545
 20
-1318.7219658079
 10
1413.1221299886
 20
-1306.8542981688
 10
1418.1580349645
 20
-1295.0186562795
 10
1423.3997097734
 20
-1283.2235729829
 10
1428.8433754579
 20
-1271.4775518811
 10
1434.4851074363
 20
-1259.7890612055
 10
1440.3208383321
 20
-1248.1665277108
 10
1446.3463609062
 20
-1236.6183306005
 10
1452.5573310903
 20
-1225.1527954857
 10
1458.9492711187
 20
-1213.7781883827
 10
1465.5175727563
 20
-1202.5027097536
 10
1472.2575006211
 20
-1191.3344885946
 10
1479.1641955982
 20
-1180.281576575
 10
1486.2326783427
 20
-1169.3519422328
 10
1493.4578528697
 20
-1158.5534652294
 10
1500.8345102283
 20
-1147.8939306691
 10
1508.3573322567
 20
-1137.3810234864
 10
1516.0208954166
 20
-1127.0223229057
 10
1523.819674703
 20
-1116.8252969767
 10
1531.7480476277
 20
-1106.7972971909
 10
1539.8002982726
 20
-1096.9455531811
 10
1547.9706214106
 20
-1087.2771675095
 10
1556.2531266909
 20
-1077.7991105471
 10
1564.6418428855
 20
-1068.5182154485
 10
1573.1307221942
 20
-1059.4411732254
 10
1581.713644605
 20
-1050.574527923
 10
1590.3844223057
 20
-1041.9246719017
 10
1599.1368041455
 20
-1033.4978412291
 10
1607.9644801415
 20
-1025.3001111838
 10
1615.1678357241
 20
-1018.8300872103
  0
ENDSEC
  0
SECTION
  2
OBJECTS
  0
DICTIONARY
  5
C
330
0
100
AcDbDictionary
281
     1
  3
ACAD_GROUP
350
D
  3
ACAD_LAYOUT
350
1A
  3
ACAD_MLINESTYLE
350
17
  3
ACAD_PLOTSETTINGS
350
19
  3
ACAD_PLOTSTYLENAME
350
E
  3
ACAD_SCALELIST
350
47
  0
DICTIONARY
  5
D
102
{ACAD_REACTORS
330
C
102
}
330
C
100
AcDbDictionary
281
     1
  0
DICTIONARY
  5
1A
102
{ACAD_REACTORS
330
C
102
}
330
C
100
AcDbDictionary
281
     1
  3
Layout1
350
1E
  3
Layout2
350
26
  3
Model
350
22
  0
DICTIONARY
  5
17
102
{ACAD_REACTORS
330
C
102
}
330
C
100
AcDbDictionary
281
     1
  3
Standard
350
18
  0
DICTIONARY
  5
19
102
{ACAD_REACTORS
330
C
102
}
330
C
100
AcDbDictionary
281
     1
  0
ACDBDICTIONARYWDFLT
  5
E
102
{ACAD_REACTORS
330
C
102
}
330
C
100
AcDbDictionary
281
     1
  3
Normal
350
F
100
AcDbDictionaryWithDefault
340
F
  0
DICTIONARY
  5
47
102
{ACAD_REACTORS
330
C
102
}
330
C
100
AcDbDictionary
281
     1
  3
A0
350
48
  3
A1
350
49
  3
A2
350
4A
  3
A3
350
4B
  3
A4
350
4C
  3
A5
350
4D
  3
A6
350
4E
  3
A7
350
4F
  3
A8
350
50
  3
A9
350
51
  3
B0
350
52
  3
B1
350
53
  3
B2
350
54
  3
B3
350
55
  3
B4
350
56
  3
B5
350
57
  3
B6
350
58
  3
B7
350
59
  3
B8
350
5A
  3
B9
350
5B
  3
C0
350
5C
  3
C1
350
5D
  3
C2
350
5E
  3
C3
350
5F
  3
C4
350
60
  3
C5
350
61
  3
C6
350
62
  3
C7
350
63
  3
C8
350
64
  3
C9
350
65
  3
D0
350
66
  3
D1
350
67
  3
D2
350
68
  0
LAYOUT
  5
1E
102
{ACAD_REACTORS
330
1A
102
}
330
1A
100
AcDbPlotSettings
  1

  2
none_device
  4

  6

 40
0.0
 41
0.0
 42
0.0
 43
0.0
 44
0.0
 45
0.0
 46
0.0
 47
0.0
 48
0.0
 49
0.0
140
0.0
141
0.0
142
1.0
143
1.0
 70
   688
 72
     1
 73
     0
 74
     5
  7

 75
    16
147
1.0
148
0.0
149
0.0
100
AcDbLayout
  1
Layout1
 70
     1
 71
     1
 10
0.0
 20
0.0
 11
420.0
 21
297.0
 12
0.0
 22
0.0
 32
0.0
 14
1.0000000000E+20
 24
1.0000000000E+20
 34
1.0000000000E+20
 15
-1.0000000000E+20
 25
-1.0000000000E+20
 35
-1.0000000000E+20
146
0.0
 13
0.0
 23
0.0
 33
0.0
 16
1.0
 26
0.0
 36
0.0
 17
0.0
 27
1.0
 37
0.0
 76
     0
330
1B
  0
LAYOUT
  5
26
102
{ACAD_REACTORS
330
1A
102
}
330
1A
100
AcDbPlotSettings
  1

  2
none_device
  4

  6

 40
0.0
 41
0.0
 42
0.0
 43
0.0
 44
0.0
 45
0.0
 46
0.0
 47
0.0
 48
0.0
 49
0.0
140
0.0
141
0.0
142
1.0
143
1.0
 70
   688
 72
     1
 73
     0
 74
     5
  7

 75
    16
147
1.0
148
0.0
149
0.0
100
AcDbLayout
  1
Layout2
 70
     1
 71
     2
 10
0.0
 20
0.0
 11
0.0
 21
0.0
 12
0.0
 22
0.0
 32
0.0
 14
0.0
 24
0.0
 34
0.0
 15
0.0
 25
0.0
 35
0.0
146
0.0
 13
0.0
 23
0.0
 33
0.0
 16
1.0
 26
0.0
 36
0.0
 17
0.0
 27
1.0
 37
0.0
 76
     0
330
23
  0
LAYOUT
  5
22
102
{ACAD_REACTORS
330
1A
102
}
330
1A
100
AcDbPlotSettings
  1

  2
none_device
  4
Letter_(8.50_x_11.00_Inches)
  6

 40
6.35
 41
6.35
 42
6.35000508
 43
6.35000508
 44
215.9
 45
279.4
 46
0.0
 47
0.0
 48
0.0
 49
0.0
140
0.0
141
0.0
142
1.0
143
1.0
 70
  1712
 72
     1
 73
     0
 74
     0
  7

 75
     0
147
1.0
148
0.0
149
0.0
100
AcDbLayout
  1
Model
 70
     1
 71
     0
 10
0.0
 20
0.0
 11
279.4
 21
215.9
 12
0.0
 22
0.0
 32
0.0
 14
0.0
 24
0.0
 34
0.0
 15
279.4
 25
215.9
 35
0.0
146
0.0
 13
0.0
 23
0.0
 33
0.0
 16
1.0
 26
0.0
 36
0.0
 17
0.0
 27
1.0
 37
0.0
 76
     0
330
1F
331
29
  0
MLINESTYLE
  5
18
102
{ACAD_REACTORS
330
17
102
}
330
17
100
AcDbMlineStyle
  2
Standard
 70
     0
  3

 62
   256
 51
90.0
 52
90.0
 71
     2
 49
0.5
 62
   256
  6
BYLAYER
 49
-0.5
 62
   256
  6
BYLAYER
  0
ACDBPLACEHOLDER
  5
F
102
{ACAD_REACTORS
330
E
102
}
330
E
  0
SCALE
  5
48
102
{ACAD_REACTORS
330
47
102
}
330
47
100
AcDbScale
 70
     0
300
1:1
140
1.0
141
1.0
290
     1
  0
SCALE
  5
49
102
{ACAD_REACTORS
330
47
102
}
330
47
100
AcDbScale
 70
     0
300
1:2
140
1.0
141
2.0
290
     0
  0
SCALE
  5
4A
102
{ACAD_REACTORS
330
47
102
}
330
47
100
AcDbScale
 70
     0
300
1:4
140
1.0
141
4.0
290
     0
  0
SCALE
  5
4B
102
{ACAD_REACTORS
330
47
102
}
330
47
100
AcDbScale
 70
     0
300
1:5
140
1.0
141
5.0
290
     0
  0
SCALE
  5
4C
102
{ACAD_REACTORS
330
47
102
}
330
47
100
AcDbScale
 70
     0
300
1:8
140
1.0
141
8.0
290
     0
  0
SCALE
  5
4D
102
{ACAD_REACTORS
330
47
102
}
330
47
100
AcDbScale
 70
     0
300
1:10
140
1.0
141
10.0
290
     0
  0
SCALE
  5
4E
102
{ACAD_REACTORS
330
47
102
}
330
47
100
AcDbScale
 70
     0
300
1:16
140
1.0
141
16.0
290
     0
  0
SCALE
  5
4F
102
{ACAD_REACTORS
330
47
102
}
330
47
100
AcDbScale
 70
     0
300
1:20
140
1.0
141
20.0
290
     0
  0
SCALE
  5
50
102
{ACAD_REACTORS
330
47
102
}
330
47
100
AcDbScale
 70
     0
300
1:30
140
1.0
141
30.0
290
     0
  0
SCALE
  5
51
102
{ACAD_REACTORS
330
47
102
}
330
47
100
AcDbScale
 70
     0
300
1:40
140
1.0
141
40.0
290
     0
  0
SCALE
  5
52
102
{ACAD_REACTORS
330
47
102
}
330
47
100
AcDbScale
 70
     0
300
1:50
140
1.0
141
50.0
290
     0
  0
SCALE
  5
53
102
{ACAD_REACTORS
330
47
102
}
330
47
100
AcDbScale
 70
     0
300
1:100
140
1.0
141
100.0
290
     0
  0
SCALE
  5
54
102
{ACAD_REACTORS
330
47
102
}
330
47
100
AcDbScale
 70
     0
300
2:1
140
2.0
141
1.0
290
     0
  0
SCALE
  5
55
102
{ACAD_REACTORS
330
47
102
}
330
47
100
AcDbScale
 70
     0
300
4:1
140
4.0
141
1.0
290
     0
  0
SCALE
  5
56
102
{ACAD_REACTORS
330
47
102
}
330
47
100
AcDbScale
 70
     0
300
8:1
140
8.0
141
1.0
290
     0
  0
SCALE
  5
57
102
{ACAD_REACTORS
330
47
102
}
330
47
100
AcDbScale
 70
     0
300
10:1
140
10.0
141
1.0
290
     0
  0
SCALE
  5
58
102
{ACAD_REACTORS
330
47
102
}
330
47
100
AcDbScale
 70
     0
300
100:1
140
100.0
141
1.0
290
     0
  0
SCALE
  5
59
102
{ACAD_REACTORS
330
47
102
}
330
47
100
AcDbScale
 70
     0
300
1/128" = 1'-0"
140
0.0078125
141
12.0
290
     0
  0
SCALE
  5
5A
102
{ACAD_REACTORS
330
47
102
}
330
47
100
AcDbScale
 70
     0
300
1/64" = 1'-0"
140
0.015625
141
12.0
290
     0
  0
SCALE
  5
5B
102
{ACAD_REACTORS
330
47
102
}
330
47
100
AcDbScale
 70
     0
300
1/32" = 1'-0"
140
0.03125
141
12.0
290
     0
  0
SCALE
  5
5C
102
{ACAD_REACTORS
330
47
102
}
330
47
100
AcDbScale
 70
     0
300
1/16" = 1'-0"
140
0.0625
141
12.0
290
     0
  0
SCALE
  5
5D
102
{ACAD_REACTORS
330
47
102
}
330
47
100
AcDbScale
 70
     0
300
3/32" = 1'-0"
140
0.09375
141
12.0
290
     0
  0
SCALE
  5
5E
102
{ACAD_REACTORS
330
47
102
}
330
47
100
AcDbScale
 70
     0
300
1/8" = 1'-0"
140
0.125
141
12.0
290
     0
  0
SCALE
  5
5F
102
{ACAD_REACTORS
330
47
102
}
330
47
100
AcDbScale
 70
     0
300
3/16" = 1'-0"
140
0.1875
141
12.0
290
     0
  0
SCALE
  5
60
102
{ACAD_REACTORS
330
47
102
}
330
47
100
AcDbScale
 70
     0
300
1/4" = 1'-0"
140
0.25
141
12.0
290
     0
  0
SCALE
  5
61
102
{ACAD_REACTORS
330
47
102
}
330
47
100
AcDbScale
 70
     0
300
3/8" = 1'-0"
140
0.375
141
12.0
290
     0
  0
SCALE
  5
62
102
{ACAD_REACTORS
330
47
102
}
330
47
100
AcDbScale
 70
     0
300
1/2" = 1'-0"
140
0.5
141
12.0
290
     0
  0
SCALE
  5
63
102
{ACAD_REACTORS
330
47
102
}
330
47
100
AcDbScale
 70
     0
300
3/4" = 1'-0"
140
0.75
141
12.0
290
     0
  0
SCALE
  5
64
102
{ACAD_REACTORS
330
47
102
}
330
47
100
AcDbScale
 70
     0
300
1" = 1'-0"
140
1.0
141
12.0
290
     0
  0
SCALE
  5
65
102
{ACAD_REACTORS
330
47
102
}
330
47
100
AcDbScale
 70
     0
300
1-1/2" = 1'-0"
140
1.5
141
12.0
290
     0
  0
SCALE
  5
66
102
{ACAD_REACTORS
330
47
102
}
330
47
100
AcDbScale
 70
     0
300
3" = 1'-0"
140
3.0
141
12.0
290
     0
  0
SCALE
  5
67
102
{ACAD_REACTORS
330
47
102
}
330
47
100
AcDbScale
 70
     0
300
6" = 1'-0"
140
6.0
141
12.0
290
     0
  0
SCALE
  5
68
102
{ACAD_REACTORS
330
47
102
}
330
47
100
AcDbScale
 70
     0
300
1'-0" = 1'-0"
140
12.0
141
12.0
290
     0
  0
ENDSEC
  0
EOF
